» » »

I Can Make A Mess Like Nobodys Business - Untitled Tabs

Artists:  A B C D E F G H I J K L M N O P Q R S T U V W X Y Z # 

Untitled Tabs

(ver. 1) Click to play this song!
I Can Make A Mess Like Nobodys Business
 Rating:
4.2/5 (5 votes)
    Untitled lessons Tabs too difficult? Try these video lessons and learn fast
                "(9)

Tuning: 1/2 step DOWN


(GUITAR 1)

A=002200
E=022100
D=000232
F#=202220

        A
you're always in control you never make a big deal
A                                                     E
you always are your own you never need someone to feel good for yourself
   A
you always watch yourself after everyone else
A                                                             E
you never change a shoe because it's always on the right foot, oh yeah.

  D                                     E
and we're all finding ways to find ourselves
                             D
through these broken fallin walls that we call
            E                           D
we call our own and we're never looking away
             E                           A
hopefully someday we can just stay home

     A
im too afraid to talk i never even curse
     A
well i think them all the time cause it's the reason why
            E
i'm so built up inside
    A
our dreams run off the screen i see the world with my two eyes
 A
i have another girl for every adventure oh yeah
          E
i try, but thats me

  D                                 E
and we're all finding ways to find ourselves
                              D
through these broken fallin walls that we call
             E                          D
we call our own and we're never looking away
                E                                    A (let it ring)
hopefully someday we can just stay home

F#            E

A                         F#
take a look you see what you'll find
                         E
maybe look and see what you'll find
A                        F#
take a look you see what you'll find
                         E
maybe look and see what you'll find
A                        F#
take a look you see what you'll find
                         E
maybe look and see what you'll find

  D                            E
and we're all finding ways to find ourselves
                            D
through these broken fallin walls that we call
            E                           D
we call our own and we're never looking away
              E                      A
hopefully someday we can just stay home

============================================================
GUITAR 2

verse:
eb|----------------------------------12------12------12------------------------|
Bb|--------------10-9---10-9------------10------10---------10/-----------------|
Gb|---6-7-9~----------9------------9-------9-------9----9----------------------|
Db|-7-------------------------x2-----------------------------------------------|
Ab|----------------------------------------------------------------------------|
Eb|----------------------------------------------------------------------------|

chorus:

eb|-----------------------------------------------------------------------------|
Bb|-----------------------------------------------------------------------------|
Gb|-----------------------------------------------------------------------------|
Db|--------------------------------------------------7-7-7-6-6-6-4-4-4----------|
Ab|-------------4-4-4-5-5-5-7-7-7-7-7-7-7-7-7-7-7-7-------------------7-7-7-----|
Eb|-5-5-5-7-7-7-----------------------------------------------------------------|

eb|-----------------------------------------------------------------------------|
Bb|-----------------------------------------------------------------------------|
Gb|---------------------------------------------6-6-6-7-7-7-9-9-9-9-9-9-9-9-----|
Db|---------------------------------7-7-7-9-9-9---------------------------------|
Ab|-5-5-5-5-5-5-5-5-5-5-5-5~-4-5-4----------------------------------------------|
Eb|-----------------------------------------------------------------------------|

eb|----------------------------------------------------------------------------|
Bb|---------10-10-10-9-9-9-7-7-7-----------------------------------------------|
Gb|-9-9-9-9----------------------9-9-9-7-7-7-7-7-7-7-7-7~--6-7-6---------------|
Db|----------------------------------------------------------------------------|
Ab|----------------------------------------------------------------------------|
Eb|----------------------------------------------------------------------------|

eb|-------------------------------|
Bb|-------------------------------|
Gb|--7-9-7~--7-9-7--7-9-7---------|
Db|---------7------7-------9~-----|
Ab|-------------------------------|
Eb|-------------------------------|

both guitars!!
I know, "finally" right?
haha. well you're welcome.
"            
Submit corrections

↑ Back to top | Tablatures and chords for acoustic guitar and electric guitar, ukulele, drums are parodies/interpretations of the original songs. You may use it for private study, scholarship, research or language learning purposes only