» » »

I Am X - Spit It Out Tabs

Artists:  A B C D E F G H I J K L M N O P Q R S T U V W X Y Z # 

Spit It Out Tabs

(ver. 1) Click to play this song!
I Am X
 Rating:
4.2/5 (5 votes)


 Spit It Out lessons Tabs too difficult? Try these video lessons and learn fast
 
                
INTRO
e----------------------|
b----------------------|
g----------------------|
d-x-x-x-x-x-x-x-x------|
a-x-x-x-x-x-x-x-x------|
E-x-x-x-x-x-x-x-x------|

VERSE
e----------------------------------------------------| I dont know the exact
b----------------------------------------------------| amount of these.
g----------------------------------------------------| So figure it out
d-x-x-x-x-x-x-x-x-x-x-x-x-x-x-x-x-x-x-x-x-x-x-x-x-x--| Yourself.
a-7-7-7-7-7-7-7-7-7-7-7-7-7-7-7-7-7-7-7-7-7-7-7-7-7--|
E-5-5-5-5-5-5-5-5-5-5-5-5-5-5-5-5-5-5-5-5-5-5-5-5-5--|
And if you're hurting I will replace the noise with

e-----------------------|-------------------------------------------|
b-----------------------|-------------------------------------------|
g-----------------------|-------------------------------------------|
d-x-x-x-x-x-x-x-x-x-x-x-|-x-x-x-x-x-x-x-x-x-|-9-9-9-9-9-9-9-9-9-9-9-|
a-3-3-3-3-3-3-3-3-1-1-1-|-10-10-10-10-10-10-|-7-7-7-7-7-7-7-7-7-7-7-|
E-1-1-1-1-1-1-1-1-1-1-1-|-8-8-8-8-8-8-8-8-8-|-0-0-0-0-0-0-0-0-0-0-0-|
  with silence instead     Flushing out       your head

BRIDGE
e----------------------------------------|
b----------------------------------------|
g----------------------------------------| X2
d-----10---9------2----2----3p2----------|
a-0-0----0--0-0-0--0-0---0-0-------------|
E----------------------------------------|

e-------------------------------|----------------|
b-------------------------------|----------------|
g-----0-------------------------|----------------|
d---------3-----------------0---|--2----0----2---|
a-----------------3---3-------3-|--3------3--2---|
E-1-1---1---1-1-1--1-1--1-1-----|----------------|

VERSE

CHOURS

e------------------------------------------------------------|
b------------------------------------------------------------|
g------------------------------------------------------------|
d-X-X-X-X-X-X-X-X-X-X-X-X-X----------------------------------|
a-7-7-7-7-7-7-7-7-7-7-7-7-7----------------------------------|
E-5-5-5-5-5-5-5-5-5-5-5-5-5----------------------------------|
'cause it breaks my heart That we live this way i know that

e----------------------|
b----------------------|
g----------------------|
d-x-x-x-x-x-x-x-x-x-x-x-|-x-x-x-x-x-x-x-x-x-|-9-9-9-9-9-9-9-9-9-9-9-|
a-3-3-3-3-3-3-3-3-3-3-3-|-10-10-10-10-10-10-|-7-7-7-7-7-7-7-7-7-7-7-|
E-1-1-1-1-1-1-1-1-1-1-1-|-8-8-8-8-8-8-8-8-8-|-0-0-0-0-0-0-0-0-0-0-0-|
  people need love       cause them people never play the game

Thats the song. Heres the Lyrics.
Just follow the pattern and you'll be sweet.

LYRICS

And if you're hurting
I will replace the noise with silence instead
Flushing out your head

If you like it violent
We can play rough and tumble
Fall into bed
And I won't breathe so you can recover

When you're in pieces
Just follow the echo of my voice
It's okay
Tune into that frequency

Don't fight your reflex
Embrace the instinct
You can feel your way
Through the bed and weak face in the end

'cause it breaks my heart
That we live this way
I know people need love
'cause them people never play the game
And we talk the talk
We communicate
The people need love
Those people never play the game

Pleasure for pleasure
It eases consequence
And love for a fall
But I know you love to take a risk

The past is weakness
Don't beg the question when the answer is war
There are moments when I'm overcome

'cause it breaks my heart
That we live this way
I know people need love
'cause them people never play the game
And we talk the talk
We communicate
Them people need love
Those people never play the game

And it breaks my heart
And it breaks my heart
In love 
            
Submit corrections



        Spit It Out lessons Hard to play? Try these video lessons and learn fast Spit It Out lessons
        
↑ Back to top | Tablatures and chords for acoustic guitar and electric guitar, ukulele, drums are parodies/interpretations of the original songs. You may use it for private study, scholarship, research or language learning purposes only