» » »

I Am Giant - Razor Wire Reality Tabs

Artists:  A B C D E F G H I J K L M N O P Q R S T U V W X Y Z # 

Razor Wire Reality Tabs

(ver. 1) Click to play this song!
I Am Giant
 Rating:
4/5 (4 votes)

 Razor Wire Reality lessons Tabs too difficult? Try these video lessons and learn fast
 
                // Razor Wire Reality by I Am Giant\\


This is a partial tab, and it's still in development but it's my first tab :) If you 


Main Riff
E|--------------------------------------------------------------------|
B|--------------------------------------------------------------------|
G|--------------------------------------------------------------------|
D|-------2-2-2-5-5-5-2-2-2-5-5-5--------------------------------------| x6
A|-0-0-0-------------------------3s5-5-5-5s3-3-3-3s5-5-5-5s3-3-3------|
E|-------------------------------^------------------------------------|
                        Hold that note for a sec

Pre-Chorus

E|------------------------------------|
B|------------------------------------|
G|------------------------------------|
D|-2222222222222222-4444444444444444--|
A|------------------------------------|
E|------------------------------------|

Chorus

E|----------------|
B|----------------|
G|-9s5--7s3-5-3~--|
D|-9s5--7s3-5-3~--| x4
A|-7s3--5s1-3-1~--|
E|----------------|


Post-Chorus (Maybe)

Palm Muted            Regular
E|-------------------|-----------|
B|-------------------|-----------|
G|-------------------|-5---7-5---|
D|-------------------|-5---7-5---|  x2
A|-7-7-7-3-3-3-5-5-5-|-3---5-3---|
E|-------------------|-----------|
            
Submit corrections


        Razor Wire Reality lessons Hard to play? Try these video lessons and learn fast Razor Wire Reality lessons
        
↑ Back to top | Tablatures and chords for acoustic guitar and electric guitar, ukulele, drums are parodies/interpretations of the original songs. You may use it for private study, scholarship, research or language learning purposes only