Home » H » Hypocrisy »

Hypocrisy - Exclamation Of A Necrofag Tabs

Artists:  A B C D E F G H I J K L M N O P Q R S T U V W X Y Z # 

Exclamation Of A Necrofag Tabs

(ver. 1) Click to play this song!
Hypocrisy
                        HYPOCRISY - EXCLAMATION OF A NECROFAG
                           Copyright: Nuclear Blast 1993
                   
                              Version 1.0 August 2001




 NOTATION USED:

 " - Tromolo note (One " = four notes!)

 . - Palm mute

 / - Silde up 

 \ - Slide down

 p - Pull off

 Here's one of my favorite songs of all time. It's a extremely brutal 
song that has alot of energy. A very good song for those of you who  
still appreciate the old sh*t.
  
 Note: Make sure you listen to the song to get the exact intervals
and timing down.

Tuning: "C"F"A#"D#"G"C" (2 whole steps down!)


Riff 1 - A                                  First time     Second time
|-----------------------------------------||-------------||-------------||
|-----------------------------------------||-------------||-------------||
|-----------------------------------------||-------------||-------------||
|-----------------------------------------||-------------||----------3--||
|--5-\-6--------3-\-4--------5-\-6--------||--3-\-4---3--||--3-\-4---1--||
|--3-\-4--0000--1-\-2--0000--3-\-4--0000--||--1-\-2---1--||--1-\-2------||
pm        ....         ....         .... 


Riff 2
|--------------------------------------------|
|--------------------------------------------|
|--------------------------------------------|
|--------------------------------------------|
|--2---------5---------4---------2--5--4--5--|
|--0--00000--3--00000--2--00000--0--3--2--3--|
pm    .....     .....     .....  .  .  .  .


Riff 3
|--------------------------------|
|--------------------------------|
|--------------------------------|
|--------------------------------|
|---------2"--1"---------5"--4"--|
|--0""------------3""------------|


Riff 4 - B (Palm mute all strings, play all chords down stokes)
|----------------------------------------------------------|
|----------------------------------------------------------|
|----------------------------------------------------------|
|--6-6-6--7-7-7--6-6-6--4-4-4--6-6-6-----------------------|
|--4-4-4--5-5-5--4-4-4--2-2-2--4-4-4--7-7-7--6-6-6--4-4-4--|
|-------------------------------------5-5-5--4-4-4--2-2-2--|
pm . . .  . . .  . . .  . . .  . . .  . . .  . . .  . . .


Riff 5 - A
|-----------------------------------|
|-----------------------------------|
|-----------------------------------|
|-----------------------------------|
|--4""-5""-4""-2""-4""--------------|
|----------------------5""-4""-2""--|


Riff 5 - B
|-----------------------------------|
|-----------------------------------|
|-----------------------------------|
|--6---------------6---7---6---4----|
|--4---------------4---7-/-6---4----|
|--4---------------4---5-/-4---2----|


Riff 6 - A
|-------------------------------------------------|
|-------------------------------------------------|
|-------------------------------------------------|
|-------------------------------------------------|
|-----------------3-----------------------6----4--|
|--0----3----4-----------4-p-3---6-p-4------------|


Riff 6 - B
|-------------------------------------------------|
|-------------------------------------------------|
|-------------------------------------------------|
|-----------------5-----------------------8----6--|
|--2----5----6----3------5---6---8---6----6----4--|
|--0----3----4-----------3---4---6---4------------|


Fill 1
|----------------------------------|
|----------------------------------|
|----------------------------------|
|--------------------------6"--4"--|
|--4"--3"----------6"--4"----------|
|----------4"--3"------------------|


Riff 7
|------------------------------------------------------------------|
|------------------------------------------------------------------|
|------------------------------------------------------------------|
|----------------------------------------------------------6"--4"--|
|--4"--3"----------6"--4"----------4"--3"----------6"--4"----------|
|----------4"--3"----------4"--3"----------4"--3"------------------|


Riff 4 - B
|------------------------------------------------------|
|------------------------------------------------------|
|------------------------------------------------------|
|--6------7------6------4------6-----------------------|
|--4------5------4------2------4------7------6------4--|
|-------------------------------------5------4------2--|


End
||-----||
||-----||
||-----||
||--6--||
||--4--||
||-----||


SONG STRUCTURE:

Riff ( 1 ) x 8
Riff ( 2 ) x 8
Riff ( 1 ) x 4
Riff ( 3 ) x 8
Riff (4-A) x 4
Riff (5-A) x 4 Gtr I
Riff (5-B) x 1 (5-A) x 1 (5-B) x 1 (5-A) x 1 Gtr II
Riff (6-A) x 2
Riff (6-B) x 6
Fill ( 1 ) x 1
Riff ( 7 ) x 7
Riff ( 2 ) x 8
Riff (4-A) x 4
Riff (4-B) x 2
End!


 Alright, there's another one for ya. Hope you like it. I've also tabbed
"Attachment To The Ancestor, Take The Throne, Black Forest and When The 
Candle Fades" by Hypocrisy. And "Dying, Corossive, Rewind, Body Bag and
Pressure Point" by Obituary. Check them out and tell me what you think.
            
Submit corrections

↑ Back to top | Tablatures and chords for acoustic guitar and electric guitar, ukulele, drums are parodies/interpretations of the original songs. You may use it for private study, scholarship, research or language learning purposes only