Home » H » Hypocrisy »

Hypocrisy - Apocalypse Tabs

Artists:  A B C D E F G H I J K L M N O P Q R S T U V W X Y Z # 

Apocalypse Tabs

(ver. 1) Click to play this song!
Hypocrisy
                             HYPOCRISY - APOCALYPSE
                      From the Album - THE FOURTH DIMENSION
                          Copyright: NUCLEAR BLAST 1994
                           Version 2.0 - November 2001
 


Special thanks to James Williams (Inverted) And John
Williams (BoonBacha) for contributing to this tab.

For Questions, Comments, Newest Version, or Corrections contact
 


 .  - palm mute           /  - slide up to
 \  - slide down to       ~  - vibrato
 h  - hammer on           b  - Bend
 p  - pull off            Suffixes for bend
 t  - tap                 f  - full bend    h - half bend 
 ph - pinched harmonic    q  - quarter bend t - tap bend
 *  - see comment         ^  - Hold bend    r release bend
 x  - Stuccatto           ~  - vibrato bend 
 ,  - slight palm mute    () - ghost note, sustained note
 "  - tremolo note        <> - Trill  

 APOCALYPSE...

 Tuning: "C"F"A#"D#"G"C"

Intro:(Lead 1) Lots of Reverb!
|------------------------------------------|
|------------------------------------------|
|------------------------------------------|
|--5--7-/-9-----------7-h-9--5-h-7--4-h-5--|
|------------------------------------------|
|------------------------------------------|

Intro:(Chords I)
|------------------------------------------|   
|------------------------------------------|   
|------------------------------------------|   
|--2-----------2--2x-----------------------|   
|--2-----------2--2x-----------------------|   
|--0-----------0--0x-----------------------|   

Intro:(Chords II)
|------------------------------------------|   
|------------------------------------------|   
|------------------------------------------|   
|--5-----------5--5x-----------------------|   
|--5-----------5--5x-----------------------|   
|--3-----------3--3x-----------------------|   

Intro:(Chords III)
|------------------------------------------|   
|------------------------------------------|   
|------------------------------------------|   
|--4-----------4--4x-----------------------|   
|--4-----------4--4x-----------------------|   
|--2-----------2--2x-----------------------|   

Lead 2
|--------------------------------------------|
|--------------------------------------------|
|--------------------------------------------|
|------9----7---10-9h10-----9----7-----------|
|--7-7---10---9---------7-7---10---9h10-9-5--|
|--------------------------------------------|

Riff 1                                   x2           x1
|------------------------------------------| |----------|
|------------------------------------------| |----------|
|------------------------------------------| |----------|
|------------------------------------------| |----------|
|--2-----------2--2------------------------| |--5----4--|
|--0-----------0--0------------------------| |--3----2--|

                                         x1            x1
|------------------------------------------| |----------|
|------------------------------------------| |----------|
|------------------------------------------| |----------|
|------------------------------------------| |----------|
|--5-----------5--5------------------------| |--7----6--|
|--3-----------3--3------------------------| |--5----4--|

                                         x1            x1
|------------------------------------------| |----------|
|------------------------------------------| |----------|
|------------------------------------------| |----------|
|------------------------------------------| |----------|
|--4-----------4--4------------------------| |--5----4--|
|--2-----------2--2------------------------| |--3----2--|

Riff 2-A
|---------------------------------------------------------------|
|---------------------------------------------------------------|
|---------------------------------------------------------------|Gtr I
|---------------------------------------------------------------|
|--2------5------4-\-5---4------2------5------4-\-5---4------3--|
|--0------3------2-\-3---2------0------3------2-\-3---2------1--|


|---------------------------------------------------------------|
|---------------------------------------------------------------|
|---------------------------------------------------------------|Gtr II
|---------------------------------------------------------------|
|--9------12-----11\-12--11-----9------12-----11\-12--11-----10-|
|--7------10-----9-\-10--9------7------10-----9-\-10--9------8--|

Riff 2-B 
|---------------------------------------------------------------|
|---------------------------------------------------------------|
|---------------------------------------------------------------|Gtr I
|---------------------------------------------------------------|
|--2------5------4-\-5---4----4-2------5------4-\-5---4------3--|
|--0------3------2-\-3---2----2-0------3------2-\-3---2------1--|

 
|---------------------------------------------------------------|
|---------------------------------------------------------------|
|---------------------------------------------------------------|Gtr II
|---------------------------------------------------------------|
|--9------12-----11\-12--11--11-9------12-----11\-12--11-----10-|
|--7------10-----9-\-10--9----9-7------10-----9-\-10--9------8--|

Riff 3-A                           Riff 3-B
|-----------------------|          |-----------------------|
|-----------------------|          |-----------------------|
|-----------------------|          |-----------------------|
|--9----8----9----------|          |--7----6----7----3--2--|
|--7----6----7----9--8--|          |--7----6----7----3--2--|
|-----------------7--6--|          |--5----4----5----1--0--|

Solo
|--------------------------------------------
|-----10-12-13-12-10--14--r(14)-13~--(13)/---
|--12-----------------bf---------------------
|--------------------------------------------
|--------------------------------------------
|--------------------------------------------

             {    4    }   {  3  }{  3  }{  3  } 
|----------------------------------------------
|--10-12-13--13p12p10--------------------------
|--------------------12------------------------
|--------------------------10-9-7-9-7----7-----
|-------------------------------------10---10-8
|----------------------------------------------

   {  3  }             
|---------------------------------------------------------|
|---------------------------------------------------------|
|-----------------------------------12--r12-10-9-9h10p9~--|
|-----------------7-9-10-12--r12-10-bf--------------------|
|--10-8-7--5-/7----------bf-------------------------------|
|---------------------------------------------------------|

Song Structure:

Intro:
Chords I x 2 II x 1 III x 2 I x 1 
Lead 1 x 4 Gtr I
Riff 1 x 1 Gtr II
Lead 2 x 1
Riff 2-A x 2
Lead 2 x 2 Gtr I
Riff 3-A x 2 Gtr II
Riff 3-B x 2
Lead 1 x 4 Gtr I
Riff 1 x 1 Gtr II
Riff 2-B x 2
Lead 2 x 2
Riff 3-A x 2
Riff 3-B x 2
Lead 1 x 4 Gtr I
Riff 1 x 1 Gtr II
Lead 2 x 1
Solo Gtr II
Riff 3-A x 2
Lead 1 x 4 Gtr I
Riff 1 x 1 Gtr II

 There's more of "The Fourth Dimension" to come. Also check out 
our other tabs by Hypocrisy, Grave and Obituary. Don't forget to 
check out my "Abyss" solo by Hypocrisy.
            
Submit corrections

↑ Back to top | Tablatures and chords for acoustic guitar and electric guitar, ukulele, drums are parodies/interpretations of the original songs. You may use it for private study, scholarship, research or language learning purposes only