Home » H » Hurts »

Hurts - Somebody To Die For Bass

Artists:  A B C D E F G H I J K L M N O P Q R S T U V W X Y Z # 

Somebody To Die For Bass

(ver. 1) Click to play this song!
Hurts
Band: Hurts
Tuning: Standard (EADG)

Timings from Album version

come in at 0:11

Intro

G|--------------------------------|
D|--------------------------------| X4
A|--------------------------------|
E|4/-------12\------7\------2-----|

Verse 0:52 (I've got nothing left..)
                                         End Here On 3rd Time
G|-------------------------------------------------|-----------|
D|-------------------------------------------------|-----------| X3
A|-------------------------------------------------V-----------|
E|4-4-4----------0-0-0----------7-7-7----------2-2-2---------22|

Chorus 1:24 (die for....)

G|------------------------------------------------------------------|
D|------------------------------------------------------------------| X2
A|------------------------------------------------------------------|
E|444444444444444-0000000000000000-7777777777777777-2222222222222222|

Intro X1

Verse 2 1:55 (When im staring in the....)
                                         End Here On 3rd Time
G|---------------------------------------------|---------------|
D|---------------------------------------------|---------------| X3
A|---------------------------------------------V---------------|
E|4-4-4----------0-0-0----------7-7-7----------2-2-2---------22|

Chorus 2:26 (die for....)

G|------------------------------------------------------------------|
D|------------------------------------------------------------------| X2
A|------------------------------------------------------------------|
E|444444444444444-0000000000000000-7777777777777777-2222222222222222|

Bridge 2:47

G|----------------------------------------------------------------|
D|----------------------------------------------------------------|
A|--------------------------------4-4-4-4-4-4-4-4-----------------|
E|6-6-6-6-6-6-6-6\2-2-2-2-2-2-2-2/----------------4-4-4-4-4-4-4-4-|

G|----------------------------------------------------------------|
D|----------------------------------------------------------------|
A|--------------------------------4-4-4-4-4-4-4-4-----------------|
E|6-6-6-6-6-6-6-6\2-2-2-2-2-2-2-2/----------------0-0-0-0-0-0-0-0-|


Final Chorus 3:19 (Die for....)

G|------------------------------------------------------------------|
D|------------------------------------------------------------------| X4
A|------------------------------------------------------------------|
E|444444444444444-0000000000000000-7777777777777777-2222222222222222|

Order:
Intro X4
Verse X3
Chorus X2
Verse X3
Chorus X2
Bridge
Final Chorus X4
            
Submit corrections

↑ Back to top | Tablatures and chords for acoustic guitar and electric guitar, ukulele, drums are parodies/interpretations of the original songs. You may use it for private study, scholarship, research or language learning purposes only