Home » H » Hurts »

Hurts - Miracle Tabs

Artists:  A B C D E F G H I J K L M N O P Q R S T U V W X Y Z # 

Miracle Tabs

(ver. 1) Click to play this song!
Hurts
Here is the lead I know

Intro lead/ repeating verse riff/ bridge instrumental
E---10---10-10-8---------------------------------------|
B---------------10--8--10-8-6-3------------------------|
G------------------------------------------------------|
D------------------------------------------------------|
A------------------------------------------------------|
E------------------------------------------------------|

Chorus lead - No love, no light, no end insight.
E-------------------------------------------------------------------------|
B-----11-10-----11-10-----11-10---8--8--8p6h8--6h8h10p8--8p6h8--6h8h10p8--|
G--7---------7---------7--------------------------------------------------|
D-------------------------------------------------------------------------|
A-------------------------------------------------------------------------|
E-------------------------------------------------------------------------|

Lead chorus solo with slight variation
E-----------------------------------------------------------------------------|
B-----11-10-----11-10-----11-10---8--8--8p6h8--6h8h10p8--8p6h8--6-5-5-5h6p5\3-|
G--7---------7---------7------------------------------------------------------|
D-----------------------------------------------------------------------------|
A-----------------------------------------------------------------------------|
E-----------------------------------------------------------------------------|

| /   slide up
| \   slide down
| h   hammer-on
| p   pull-off
            
Submit corrections

↑ Back to top | Tablatures and chords for acoustic guitar and electric guitar, ukulele, drums are parodies/interpretations of the original songs. You may use it for private study, scholarship, research or language learning purposes only