» » »

Hurts - Ready To Go Bass

Artists:  A B C D E F G H I J K L M N O P Q R S T U V W X Y Z # 

Ready To Go Bass

(ver. 1) Click to play this song!
Hurts
 Rating:
4.3/5 (29 votes)

 Ready To Go lessons Tabs too difficult? Try these video lessons and learn fast
 
                [Verse]

G|---------------------------------------------------------------------------|
D|---------------------------------------------------------------------------|
A|---------------------6-6-------------------------------6-6-----------------|
E|-----6-6-----2-2-------------2-2-------6-6-----2-2--------------2-2--------|

  And she's looking at everybody...
G|------------3-----------------------|------------3-------------------------|
D|------8---------4P------8----4---6--|------8---------4P------8----4---6----|
A|----8---------------6-9-------------|----8---------------6-9---------------|
E|--6-------2---2------------2---4----|--6-------2---2------------2---4------|
               |"When I die, yeah, you know I'll be ready to go"        
G|-------------|---------------|--------------|--------------|---------------|
D|-------------|---------------|--------------|--------------|---------------|
A|-------------|---------------|--------------|--------------|---------------|
E|---6-6-6-6---|---------------|--------------|--------------|---------18\---|


[Chorus]

G|---------------------------------|-----------------------------------------|
D|-----------------4-----4-----4---|------------------4-----4-----4----------|
A|---------------------------------|---6-6-6-6-6-6---------------------------|
E|---6-6-6-6-6-6-----2-2---2-2-----|--------------------2-2---2-2------------|

G|---------------------------------|-----------------------------------------|
D|-----------------4-----4-----4---|------------------4-----4-----4----------|
A|---------------------------------|---6-6-6-6-6-6---------------------------|
E|---6-6-6-6-6-6-----2-2---2-2-----|--------------------2-2---2-2------------|


[Outro]

G|---------------------------------|-----------------------------------------|
D|-----------------4-----4-----4---|------------------4-----4-----4----------|
A|---------------------------------|---6-6-6-6-6-6---------------------------|
E|---6-6-6-6-6-6-----2-2---2-2-----|--------------------2-2---2-2------------|

G|---------------------------------|-----------------------------------------|
D|-----------------4-----4-----4---|------------------4-----4-----4----------|
A|---------------------------------|---6-6-6-6-6-6---------------------------|
E|---6-6-6-6-6-6-----2-2---2-2-----|--------------------2-2---2-2------------|            
Submit corrections


        Ready To Go lessons Hard to play? Try these video lessons and learn fast Ready To Go lessons
        
↑ Back to top | Tablatures and chords for acoustic guitar and electric guitar, ukulele, drums are parodies/interpretations of the original songs. You may use it for private study, scholarship, research or language learning purposes only