Home » H » Hurt Mississippi John »

Hurt Mississippi John - Nobodys Business Tabs

Artists:  A B C D E F G H I J K L M N O P Q R S T U V W X Y Z # 

Nobodys Business Tabs

(ver. 1) Click to play this song!
Hurt Mississippi John
More tab from the acoustic guitar mail list...

Notes: "Standard" fingerpicking piece; several versions in existence
        Follows naturally on Louis Collins. ( Tab basically as per SG in
        the style of Mississippi John Hurt )  Level: easyish
Tuning:EADGBE
    C                                              F
----3--------3----------3s5----------0-------|------------------------------
----|--------|------------------1----|----3--|----1------1------------------
----|--------|-----------------------|----|--|----|------|------------------
----|-----2--|--2------------0-------|----2--|----|---3--|---3--------------
----3--------|-------3---------------3-------|----|------|------------------
-------------3-------------------------------|----1------1------------------
    Ain't no-bo-dy's    dir-    ty  busi-ness     how    my
                           G                 G7
------------------------|------------------------1--------0---------|-------
----1h3--------1--------|---------0-----3--------------0--|---3-----|-------
------------2--|-----2--|--0------------------------------|---|-----|-------
---------3-----|-----3--|--|---0-----------0--------0-----|---0-----|-------
---------------|--------|--|------------------------------|---------|-------
--1------------1--------|--3---------3--------3-----------3---------|-------
     bab-   y  treat me - ain't no bo-  dy's     busi-   ness but
  C                                   C
--0---------------------|----------|--3-----3----------3s5--------0---------
--|---------------1-----|----------|--|-----|------------------1--|---3-----
--|---------0-----------|----------|--|-----|---------------------|---|-----
--|---2--------2--------|----------|--|--2--|----2----------0-----|---2-----
--3------------------3--|----0--2--|--3-----|-------3-------------3---------
---------3--------------|--3-------|--------3-------------------------------
  mine.                               No-   bod- y's    dir-   ty business
  F                                                       G7
------------------------------------|-------------------------1--------0---
--1-----1--------3---------1--------|----------0-----3--------------0--|---
--|-----|---------------2--|---2----|--0-------------------------------|---
--|--3--|--3---------3-----|---3----|--|----0-----------0--------0-----|---
--|-----|------------------|--------|--|-------------------------------|---
--1-----1-----1------------1--------|--3----------3--------3-----------3---
  no-   bodies   xxxx      business   Ain't no bo-   dy's     business but
         C
------|------------------------|-------------------------------------------
---3--|--1--------------1------|-------------------------------------------
---|--|--|--------0------------|-------------------------------------------
---0--|--|--2--------2---------|-------------------------------------------
------|--3-----------------3---|-----0--2----------------------------------
------|--------3---------------|--3----------------------------------------
   my   own!
            
Submit corrections

↑ Back to top | Tablatures and chords for acoustic guitar and electric guitar, ukulele, drums are parodies/interpretations of the original songs. You may use it for private study, scholarship, research or language learning purposes only