» » »

Hurt - World Ain't Right Tabs

Artists:  A B C D E F G H I J K L M N O P Q R S T U V W X Y Z # 

World Ain't Right Tabs

(ver. 2) Click to play this song!
Hurt
 Rating:
4/5 (4 votes)

 World Ain't Right lessons Tabs too difficult? Try these video lessons and learn fast
 
                Drop D Tuning

Sorry but i know that the chords have the wrong names.
This is my first tab. The chords might be a little bit off but they sound ok to me.
Sounds better if u pick through the verse like the song but it was harder to figure out lol.
Sounds a lot better if you have two people playing through the chorus.
Feel free to comment. I would like some feedback on how it looks and sounds.
Im sure its better than any other ones... because their isn't any other ones lol good 
and thanks.

Dsus2 gpot  Cs  Bb
 ---  ---  --- -1-|
 -3-  -3-  -3- -2-|
 -2-  -2-  --- -2-|
 ---  ---  -2- -1-|
 ---  -x-  -3- -1-|
 ---  -3-  --- -1-|

Intro

-1--1/3--3/5--5-----5-5-----5/3----3/1------1----3------------3-5-3-------1------0-|
-3--3/5--5/6--6-----6--6----6/5----5/3------3----5---5---5----5-5-5---3----3-3---2-|
-----------------0--------0-0----0------0-0------3-3---3---3--3-3-3---1----------0-|

Verse

Dsus2 gpot Csus Bb Csus
Dsus2 gpot Csus Bb Csus


Bridge and prechorus *= not before prechorus

-1-1/3--3-3/5--5--5--5-5----------3-3--1/3-3-3-5-5-3-3-1---3-3-5-5-3-3-1*--|
-3-3/5--5-5/6--6--6--6-6--5--5-5--5-5--3/5-5-5-6-6-5-5-3---5-5-6-6-5-5-3*--|
--------------------------6--6-6-------------------------------------------|

Chorus

Guitar one-
Bb Dsus2 Bb Dsus2 Bb Dsus2 Bb Dsus2

Guitar two-

-6-6-6-6-6-6--5-5--3--5-5--3--1--6-6-6-6--3-3-5-5--3-3--1-1-|
-8-8-8-8-8-8--6-6--5--6-6--5--3--8-8-8-8--5-5-6-6--5-5--3-3-|
------------------------------------------------------------|
------------------------------------------------------------|
------------------------------------------------------------|
------------------------------------------------------------|

repeat once for chorus

------1/3--3/5-|
-1/3--3/5--5/6-|
---------------|
---------------|
---------------|
---------------|
            
Submit corrections


        World Ain't Right lessons Hard to play? Try these video lessons and learn fast World Ain't Right lessons
        
↑ Back to top | Tablatures and chords for acoustic guitar and electric guitar, ukulele, drums are parodies/interpretations of the original songs. You may use it for private study, scholarship, research or language learning purposes only