Home » H » Hurt »

Hurt - Unclean Tabs

Artists:  A B C D E F G H I J K L M N O P Q R S T U V W X Y Z # 

Unclean Tabs

(ver. 2) Click to play this song!
Hurt
 Rating:
4/5 (4 votes)
                i was getting irritated that no one tabbed this song it took me a few min. to
figure out but im 100% sure its correct.

Intro & verse: You can figure out the rythem its pretty easy
   Eb------------------------------------------------------|
   Bb------------------------------------------------------|
   F#------------------------------------------------------|
   C#--0--0--0--3--0---------------------------------------|
   G#--0--0--0--3--0---------------------------------------|
   C#--0--0--0--3--0---------------------------------------|


   Chorus:
   Eb------------------------------------------------------|
   Bb------------------------------------------------------|
   F#------------------------------------------------------|
   C#--0-----7-----8-----3-----5-----0---------------------|
   G#--0-X6--7-X6--8-X6--3-X6--5-X6--0---------------------|
   C#--0-----7-----8-----3-----5-----0---------------------|

The bridge is the same as the chorus but you only srtum once
well thats it enjoy!
            
Submit corrections

↑ Back to top | Tablatures and chords for acoustic guitar and electric guitar, ukulele, drums are parodies/interpretations of the original songs. You may use it for private study, scholarship, research or language learning purposes only