» » »

Hurt - House Carpenter Tabs

Artists:  A B C D E F G H I J K L M N O P Q R S T U V W X Y Z # 

House Carpenter Tabs

(ver. 2) Click to play this song!
Hurt
 Rating:
4.8/5 (18 votes)

 House Carpenter lessons Tabs too difficult? Try these video lessons and learn fast
 
                e-------------------------------|
B--11---------------------------|
G----11-10-8--------------------|
A-------------------------------|
D-------------------------------|
E-------------------------------|x4

e---------------------|
B--12-----------------|
G----12-11-9----------|
D---------------------|
A---------------------|
E---------------------|x6


Switches back and forth for a while then:

e----------------|
B--9-------------|
G---11-10-8------|
D----------------|
A----------------|
E----------------| for a while then:

e------------------|
B------------------|
G----8----11-------|
D--8---------------|
A------------------|
E------------------| sort of fast for a while

then

e------------------------|
B------------------------|
G----8----11h10h11-------|
D--8---------------------|
A------------------------|
E------------------------| one then repeats:

e------------------|
B------------------|
G----8----11-------|
D--8---------------|
A------------------|
E------------------| for a time.

He starts singing just doing:

e-------------------|
B--*9-9-9-9-9-------|
G-------------11-10-|
D-------------------|
A-------------------|
E-------------------| for a long time

then the song just repeats from the start.
            
Submit corrections


        House Carpenter lessons Hard to play? Try these video lessons and learn fast House Carpenter lessons
        
↑ Back to top | Tablatures and chords for acoustic guitar and electric guitar, ukulele, drums are parodies/interpretations of the original songs. You may use it for private study, scholarship, research or language learning purposes only