» » »

Hurt - Danse Russe Tabs

Artists:  A B C D E F G H I J K L M N O P Q R S T U V W X Y Z # 

Danse Russe Tabs

(ver. 2) Click to play this song!
Hurt
 Rating:
4/5 (4 votes)

 Danse Russe lessons Tabs too difficult? Try these video lessons and learn fast
 
                

||-------------------------------------------------------------------------||
||-------------------------------------------------------------------------||


Tuning: Standard E
Guitar 1: Acoustic
Guitar 2: Acoustic

x=palm mute
*=Harmonic

This is an acoustic version of “Danse Russe” which is played using multiple stringed 
parts have been included to best replicate the harmonies and rhythms
with the stringed instruments.

Intro

 Guitar 1
|--------------------------------------------------|
|-------3-----------3-----------3-----------3------|
|---------4-----------4-----------4-----------4----| x4
|---------------2-----------0-----------0----------|
|---2---------0---0-------2---2-------0---0--------|
|-3---3--------------------------------------------|

 Guitar 2
|------------------------------------------|
|------------------------------------------|
|------------------------------------------| x2
|------------------------------------------|
|------------------------------------------|
|-3----2----7----5----3----2--5—-7----5--2-|

Verse

 Guitar 1 (0:26)
|--------------------------------------------------|
|-------3-----------3-----------3-----------3------|
|---------4-----------4-----------4-----------4----| x4
|---------------2-----------0-----------0----------|
|---2---------0---0-------2---2-------0---0--------|
|-3---3--------------------------------------------|

 Guitar 2 (0:26)
|------------------------------------------|
|------------------------------------------|
|------------------------------------------| x2
|------------------------------------------|
|------------------------------------------|
|-3----2----7----5----3----2--5—-7----5--2-|


Chorus

 Guitar 1 (transcribed violin) (0:53)
|---|     |---|     |---|     |---|     |----------- /     \
|---|     |---|     |---|     |---|     |----------- /      \
|---|     |---|     |---|     |---|     |----------- /      x1
|---| x24 |---| x24 |---| x24 |---| x24 |---| x24 -- /
|-5-|     |-2-|     |-5-|     |-2-|     |-4-|    --- /
|-3-|     |-0-|     |-3-|     |-0-|     |-2-|   ---- /
  x     x     x     x     x

 Guitar 2 (transcribed violin) (0:53)
|------------------------|    |---------------------------|
|------------3-2---3---3-|    |---------------------------|
|-4----4---4-----4---4---| x8 |-4-4444444444-3-3333333333-| x1
|----4---4---------------|    |-4-4444444444-4-4444444444-|
|------------------------|    |---------------------------|
|------------------------|    |---------------------------|


Bridge

 Guitar 1 (1:18)
|--------------------------------------------------|
|-------3-----------3-----------3-----------3------|
|---------4-----------4-----------4-----------4----| x1
|---------------2-----------0-----------0----------|
|---2---------0---0-------2---2-------0---0--------|
|-3---3--------------------------------------------|

 Guitar 2 (1:18)
|------------------------------------------|
|------------------------------------------|
|------------------------------------------| x1
|------------------------------------------|
|------------------------------------------|
|-3----2----7----5----3----2--5—-7----5--2-|


Solo

 Guitar 1 (3:13)
|--------------------------------------------------------|
|-----2-3--3-5-2--2-3-3p2p0--------2-3--3-5-2--2-3-3p2p0-|
|-2h4--------------------------2h4-----------------------|
|--------------------------------------------------------|
|--------------------------------------------------------|
|--------------------------------------------------------|

|-------------------------------------------------------------|
|-0-0-0-0-0---------------------------------------------------|
|-----------2-0-----------------------------------------------|
|---------------4-2-0-2/4-2-0-2h4-2---------------0-2-4-4-2/0-|
|-----------------------------------2-2--2224-444-------------|
|-------------------------------------------------------------|

|------------------------------------------------------|
|-----2-3--3-5-2--2-3-2p0--------2-3--3-5-2--2-3-3p2p0-|
|-2h4------------------------2h4-----------------------|
|------------------------------------------------------|
|------------------------------------------------------|
|------------------------------------------------------|

|----------------------------12*-|
|-----2-3--2-0--5-3-2-3p2--------|
|-2-4----------------------------|
|--------------------------------|
|--------------------------------|
|-----------------------------0--|

 Guitar 2 (3:33)
|--------------------------------------|
|--------------------------------------|
|--------0---------0--------0--------0-|
|------4---------4--------4--------4---|
|-2-2-------2-2-------2-2------2-2-----|
|--------------------------------------|

|--------------------------------------|
|--------------------------------------|
|--------0---------0--------0--------0-|
|------4---------4--------4--------4---|
|-0-0-------0-0-------0-0------0-0-----|
|--------------------------------------|

|--------------------------------------|
|--------------------------------------|
|--------0---------0--------0--------0-|
|------4---------4--------4--------4---|
|--------------------------------------|
|-3-3-------3-3-------3-3------3-3-----|

||-------------------------------------------------------------------------||
||-------------------------------------------------------------------------||
            
Submit corrections


        Danse Russe lessons Hard to play? Try these video lessons and learn fast Danse Russe lessons
        
↑ Back to top | Tablatures and chords for acoustic guitar and electric guitar, ukulele, drums are parodies/interpretations of the original songs. You may use it for private study, scholarship, research or language learning purposes only