» » »

Hurriganes - Bourbon Street Tabs

Artists:  A B C D E F G H I J K L M N O P Q R S T U V W X Y Z # 

Bourbon Street Tabs

(ver. 3) Click to play this song!
Hurriganes
 Rating:
2.3/5 (23 votes)

 Bourbon Street lessons Tabs too difficult? Try these video lessons and learn fast
 
                Tuning:Standard

Intro
e|---------------------------------------------------------------------------|
B|---------------------------------------------------------------------------|
G|---------------------------------------------------------------------------|
D|-------------------------------2--2----------------------------------------| x2
A|-2--3-3----2--3-3---2--3-3-----------5--3--5-------------------------------|
E|---------------------------------------------------------------------------|

The verse and chorus both go C|Am|F|G one bar each

I'd say play them as power chords but you can choose the best for yourself

            C     Am    F   G       /   C5  Am5  F5  G5
e|----------0------0----1---3--------------------------------------------------------|
B|----------1------1----1---0--------------------------------------------------------|
G|----------0------2----2---0------------5-------------------------------------------|
D|----------2------2----3---0------------5---7---3---5-------------------------------|
A|----------3------0----0---2------------3---7---3---5-------------------------------|
E|--------------------------3----------------5---1---3-------------------------------|


C part goes F|G|F|G

And on after the part "All the people smoke outside everything is keepin' high" it goes
e|-------------------------------------------------------------------------------|
B|-------------------------------------------------------------------------------|
G|------------------------2------------------------------------------------------|
D|-------2--5------2--5----------------------------------------------------------|
A|----3---------2----------------------------------------------------------------|
E|-------------------------------------------------------------------------------|

The same repeats after "-- Fly to the west" and then there comes two more bars F|G


The solo goes in A minor pentatonic (A, C, D, E, G, A) Basically you can use that scale 
and make your own solo
but it's good practice to play the original
e|----------------------------------------------------------------------------------------------|
B|---------------------8----------------------------------------------------8------8--10--------|
G|------5-7--5-----7-9---9------9--7----------------9--7--------------9---------9---------9-----|
D|--5-7-------------------------------10---7--5----------10--7---5------------------------------|
A|----------------------------------------------------------------------------------------------|
E|----------------------------------------------------------------------------------------------|

e|------------------------------------------------10--------------12---10---------------------------|
B|--8--10--8--10--13--------10--13---13---10--8-------13--10--8-------------13--10--13--------------|
G|--------------------------------------------------------------------------------------------------|
D|--------------------------------------------------------------------------------------------------|
A|--------------------------------------------------------------------------------------------------|
E|--------------------------------------------------------------------------------------------------|


The solo is 8 bars originally


Then comes A & B part and again C with the:
e|---------------------------------------------------------------------------------|
B|---------------------------------------------------------------------------------|
G|--------------------------2------------------------------------------------------|
D|------2---5-------2---5----------------------------------------------------------|
A|---3----------2------------------------------------------------------------------|
E|---------------------------------------------------------------------------------|


In the end there will come that last part again and will end after that on Am add9
e|------0---------------------------------------------------------------------|
B|------1---------------------------------------------------------------------|
G|------4---------------------------------------------------------------------|
D|------2---------------------------------------------------------------------|
A|------0---------------------------------------------------------------------|
E|----------------------------------------------------------------------------|

The song is:
Intro
A
B
A
B
C
Solo
A
B
C
Ending            
Submit corrections


        Bourbon Street lessons Hard to play? Try these video lessons and learn fast Bourbon Street lessons
        
↑ Back to top | Tablatures and chords for acoustic guitar and electric guitar, ukulele, drums are parodies/interpretations of the original songs. You may use it for private study, scholarship, research or language learning purposes only