Home » H » Hujan »

Hujan - Pagi Yang Gelap Tabs

Artists:  A B C D E F G H I J K L M N O P Q R S T U V W X Y Z # 

Pagi Yang Gelap Tabs

(ver. 2) Click to play this song!
Hujan
Band: Hujan


Intro (live version ;p)


e|----------------------------------------------------------------|
B|---10------------------------------------------------------12---|
G|------10------------------------12-10-9--7-8-9-7/8-9-11-12------|
D|---------12-10-9-------10-8/9-----------------------------------|
A|-----------------10-12------------------------------------------|
E|----------------------------------------------------------------|

e|---------------------------------------------------------------9-10-12-10h9------------|
B|--7-8-10-6/7-6/7--7---7-------------7--------------10----10-12--------------10/12/10---|
G|--------------------9-----------7-9---10h9-7-9/11-----11-------------------------------|
D|-------------------------7-9-10--------------------------------------------------------|
A|---------------------------------------------------------------------------------------|
E|---------------------------------------------------------------------------------------|

e|---10/14-----------------------------------------13---------|
B|-------------------------------------------------14---------|
G|----------7---7--9h7h6--7-9--4/6-----------------14---------|
D|------------9---------------------7---7---------------------|
A|------------------------------------9-------0---------------|
E|------------------------------------------6-----------------|


1st verse

D                 DM7
Lebih tua dari ku harap sabar menunggu
D7                 G
Kepulangan mu ku tunggu
D
Bukan maksud ku mendiam
DM7
Tiada niat menyimpan dendam
D7                       G
Hakikat nya rindu yg mendalam

Gm        C       D
Jalan inikan membantu
Gm        C       D
Hari esok siapa yg tahu
Bm                E
Kata ibu dengar sahaja
G                     A
Cerita hanya kita berdua


Chorus

         Em                  A
Pagi yg gelap kini sudah terang
         D
Aku adik mu
             D
Dan engkau abang
Em         F#m    Bm
Ku amat merindui kan mu 
         Em                  A
Pagi yg gelap kini sudah terang
         D
Aku adik mu
             D
Dan engkau abang
Em         F#m          Bm
Ingin ku ulang kemasa dulu



E|--------------------|
B|--------------------|
G|-3--4--5--6---------|
D|-3--4--5--6---------|
A|-3--4--5--6---------|
E|--------------------|
 




2nd Verse


D              
Tak akan putus


E|-9----------9-|
B|---10---------|
G|------11------| (2nd guitar)
D|---------12---|
A|--------------|
E|--------------|


DM7   
Hubungan kita


E|-9----------9-|
B|---10---------|
G|------11------|
D|---------11---|
A|--------------|
E|--------------|


D7                      G
Tarik nafas lega kerna aku tak apa apa


E|-8----------9-|
B|---10---------|
G|------11------|
D|---------10---|
A|--------------|
E|--------------|


Gm        C        D
Jalan inikan membantu
Gm        C         D
Hari esok siapa yg tahu
Bm                 E
Kata ibu dengar sahaja
G                     A
Cerita hanya kita berdua


E|-------------------------|
B|-------------------------|
G|-3--4--5--6--7--8--9--10-|
D|-3--4--5--6--7--8--9--10-|
A|-3--4--5--6--7--8--9--10-|
E|-------------------------|



chorus
         Em                  A
Pagi yg gelap kini sudah terang

         D
Aku adik mu
             D
Dan engkau abang

Em         F#m    Bm
Ku amat merindui kan mu

          Em                  A
Pagi yg gelap kini sudah terang
         D

Aku adik mu

             D
Dan engkau abang

Em         F#m       Bm 
Ingin ku ulang ke masa dulu
          Em                  A
Pagi yg gelap kini sudah terang
         D
Aku adik mu
             D
Dan engkau abang
Em         F#m      Bm 
Ku amat merindui kan mu

(and so on....)


E|-----------------------------|
B|-----------------------------|
G|-3--4--5--6--7--8--9--10--11-|
D|-3--4--5--6--7--8--9--10--11-|
A|-3--4--5--6--7--8--9--10--11-|
E|-----------------------------|


Outro


e|----------------------------------------------------------------------------|
B|----------------------------------------------------------------------------|
G|----------------------------------------------------7-9/11-9/11--7---7------|
D|----------------7-9/11-9/11--7---7-----------7-9-11----------------9--------|
A|---------7-9-11----------------9------7-9-11--------------------------------|
E|--7-9-11--------------------------------------------------------------------|

                                                                           
e|--14-15-11-14-12------------------------------------------------------------|
B|-----------------12-15-12/14-10---------------------------------------------|
G|--------------------------------11--11-12-14--10/11-10/11--6/7/6--7---7-----|
D|--------------------------------------------------------------------9-------|
A|----------------------------------------------------------------------------|
E|----------------------------------------------------------------------------|

e|---------------------------------------------------------------------------------12--9---------|
B|--12-----------------------------------------------------------------------------12--10--------|
G|-----12------------------------------14-12/9-9-10-11-----11-12-14---10/11-10/11----------------|
D|--------14-12----------12--10/11--11-----------------------------------------------------------|
A|--------------14-12-14-------------------------------------------------------------------------|
E|-----------------------------------------------------------------------------------------------|
            
Submit corrections

↑ Back to top | Tablatures and chords for acoustic guitar and electric guitar, ukulele, drums are parodies/interpretations of the original songs. You may use it for private study, scholarship, research or language learning purposes only