Home » H » Hujan »

Hujan - Empayarmu Tabs

Artists:  A B C D E F G H I J K L M N O P Q R S T U V W X Y Z # 

Empayarmu Tabs

(ver. 1) Click to play this song!
Hujan
Assalamualaikum…

Band    : Hujan
Song    : Empayarmu
Album   : Hujan
Tuning  : Standard

intro
kdg2 dia ptik byk tali, kdg2 sket je..dgr r lgu dia cmner…
e|-3----6----8----6----|
B|-5----8----10---8----|
G|-3----6----8----6----|
D|-5----8----10---8----|  X? (find out urself)
A|-3----6----8----6----|
E|---------------------|

Verse (ulang 2 kali)
  X8(staccato)  X16
e|-8-------------7-----|
B|-5-------------x-----|
G|-5-------------4-----|          
D|-7-------------5-----|  X2 pastu F Am F G
A|-7-------------3-----|
E|-5-------------------|

pre-chorus “biarpun mati…”
e|-1~----------1~------|
B|-1~----------1~------|
G|-2~----------2~------|
D|-3~---3-3----3~------|
A|-3~---3-3----3~------|
E|-1~---1-1----1~------|
        . .

chorus
  X16   X8 X8   X16  X8  X8
e|-8----6--8----8----8----6----|
B|-5----3--8----10---10---6----|
G|-5----3--9----9----8----7----|
D|-7----5--9----10---10---8----|  X2
A|-7----5--10---8----8----8----|
E|-5----3--8--------------6----|

play intro
     verse
     pre-chorus
     chorus

pre-solo “kucing kurap..”
maen palm2 kt Am…

solo
maen chord cm chorus.. (ye ke?)

play intro (lps solo, nk msuk chorus blik)
     chorus X? (mls nk dgr lgu skg..)
     
outro
sm gak cm intro…


xxxxxxxxxxxxxxxxxxxxxxxxxxxxxxxxxxxxxxxxxxxxxxxxxxxxxxxxxxx
k…any comments/requests please contact me..

Assalamualaikum…
            
Submit corrections

↑ Back to top | Tablatures and chords for acoustic guitar and electric guitar, ukulele, drums are parodies/interpretations of the original songs. You may use it for private study, scholarship, research or language learning purposes only