Home » H » Hujan »

Hujan - Di Kala Bulan Bermain Biola Tabs

Artists:  A B C D E F G H I J K L M N O P Q R S T U V W X Y Z # 

Di Kala Bulan Bermain Biola Tabs

(ver. 2) Click to play this song!
Hujan
"Di kala Bulan Bermain Biola"

By Ikram a.k.a botak


A'kum n slam sejahtera. Jenuh sey taip tab, tak tau chord la, ape tah Hujan pakai byk sgt
chord2 jazz ni tak gheti aku

Solo maleh nak taip, itu lagi leceh. Nak maju, cari sendiri la ye?
Chord ni ble kate 60 or 70 % betul, ade byk bunga2 die tambah sendrik celah2 chord tu.
X'cuse lirik tuh, aku rase tak betul sgt, sekadar panduan je

Enjoy!!!


------------------------------------------------------------------------------------|
------------------------------------------------------------------------------------|
------------------------------------------------------------------------------------|
------------------------------------------------------------------------------------|
------------------------------------------------------------------------------------|
------------------------------------------------------------------------------------|

Oh bidadari...
-----5----------------------|
-----7----------------------|
-----6----------------------|
-----7----------------------|
-----5----------------------|
----------------------------|

berulaskan syair oleh awan...
-------------2--------------|
-------------3--------------|
-------------2--------------|
-------------4--------------|
-------------2--------------|
----------------------------|

..............sang rembulan
---2---5---5---------------|
---3---5---7---------------|
---2---6---6---------------|
---4---5---7---------------|
---2---7---5---------------|
-------5-------------------|

tidak putus menyeret dawai biola...
------5-------2------------2----------|
------7-------2------------3----------|
------6-------2------------2----------|
------7-------2------------4----------|
------5-------4------------2----------|
--------------2-----------------------|

.....memujuk bidadari
---7-----------5-----------|
---8-----------7-----------|
---7-----------6-----------|
---9-----------7-----------|
---7-----------5-----------|
---------------------------|

.....agar tidak membilang lawan
---7-----------------5-----|
---8-----------------7-----|
---7-----------------6-----|
---9-----------------7-----|
---7-----------------5-----|
---------------------------|

......agar menghentikan getar2
---7--------------------5---------|
---8--------------------7---------|
---7--------------------6---------|
---9--------------------7---------|
---7--------------------5---------|
----------------------------------|

...yg berkelana di ratusan jiwa
---3-------------------3--------------------------------------------------------------|
---5-------------------3--------------------------------------------------------------|
---4-------------------4--------------------------------------------------------------|
---5-------------------5--------------------------------------------------------------|
---3-------------------3--------------------------------------------------------------|
--------------------------------------------------------------------------------------|

.....memujuk bidadari
---7-----------5-------------------------------------------|
---8-----------7-------------------------------------------|
---7-----------6-------------------------------------------|
---9-----------7-------------------------------------------|
---7-----------5-------------------------------------------|
-----------------------------------------------------------|

.....agar tidak membilang lawan
---7-----------------5-----------3--------------------------------|
---8-----------------7-----------5--------------------------------|
---7-----------------6-----------4--------------------------------|
---9-----------------7-----------5--------------------------------|
---7-----------------5-----------3--------------------------------|
------------------------------------------------------------------|

......agar menghentikan getar2
---7--------------------5-------------------------------------------|
---8--------------------7-------------------------------------------|
---7--------------------6-------------------------------------------|
---9--------------------7-------------------------------------------|
---7--------------------5-------------------------------------------|
--------------------------------------------------------------------|

...yg berkelana di ratusan jiwa
------3---------------------2--|
------5---------------------4--|
------4---------------------2--|
------5---------------------4--|
------3---------------------2--|
-------------------------------|

..uuuuu
-----5---------------------------------|
-----7---------------------------------|
-----6---------------------------------|
-----7---------------------------------|
-----5---------------------------------|
---------------------------------------|


si bidadari...
------2---------------------|
------3---------------------|
------2---------------------|
------4---------------------|
------2---------------------|
----------------------------|

...(bidadari ku~~~~~)
-------------5------------------------------|
-------------7------------------------------|
-------------6------------------------------|
-------------7------------------------------|
-------------5------------------------------|
--------------------------------------------|

dan sang rembulan...
---------------2-----------------------|
---------------3-----------------------|
---------------2-----------------------|
---------------4-----------------------|
---------------2-----------------------|
---------------------------------------|

memujuk bidadari ku...
---7-------------5-------------------|
---8-------------7-------------------|
---7-------------6-------------------|
---9-------------7-------------------|
---7-------------5-------------------|
-------------------------------------|

...................agar tidak membilang lawannya
---5-----7--------------------------------------|
---7--8--8-----------------------------------7--| <=======(dah start ni...dia mai dah...)
---6--7--7-----------------------------------9--|
---7-----9-----------------------------------8--|
---5-----7-----------------------------------9--|
------------------------------------------------|


tidurlah bidadari
--------------------------------------------------------------------------------------|
------3-------------------------------------------------------------------------------|
------4-------------------------------------------------------------------------------|
------4-------------------------------------------------------------------------------|
------5-------------------------------------------------------------------------------|
------3-------------------------------------------------------------------------------|

......agar kau bermimpi si pujangga...........(pujangga~~~~~~~~~~~~)
---0-------5---------5-------------------------------0-----------------------------------|
---7-------5---------7-------------------------------1-----------------------------------|
---7-------6---------6-------------------------------0-----------------------------------|
---5-------5---------7-------------------------------2-----------------------------------|
---7-------7---------5-------------------------------0-----------------------------------|
-----------5-----------------------------------------------------------------------------|

sehingga ke pagi hari
-----------------------------------------------------------------------------------------|
------4------------3---------------------------------------------------------------------|
------5------------4---------------------------------------------------------------------|
------4------------4---------------------------------------------------------------------|
------5------------5---------------------------------------------------------------------|
-------------------3---------------------------------------------------------------------|

jgn lupakan kami
--------------------------------------------------------------------------------------|
--------5-----------------------------------------------------------------------------|
--------6-----------------------------------------------------------------------------|
--------5-----------------------------------------------------------------------------|
--------4-----------------------------------------------------------------------------|
--------------------------------------------------------------------------------------|

yg bisa menemani
--------------------------------------------------------------------------------------|
--8-----------------------------------------------------------------------------------|
--9-----------------------------------------------------------------------------------|
--8-----------------------------------------------------------------------------------|
--9-----------------------------------------------------------------------------------|
--------------------------------------------------------------------------------------|

...hadirlah sebelum
--------------------------------------------------------------------------------------|
----3---------------------------------------------------------------------------------|
----4---------------------------------------------------------------------------------|
----4---------------------------------------------------------------------------------|
----5---------------------------------------------------------------------------------|
----3---------------------------------------------------------------------------------|

...tika kala
-----2-------------------------------------------------------------------------------|
-----2-------------------------------------------------------------------------------|
-----2-------------------------------------------------------------------------------|
-----2-------------------------------------------------------------------------------|
-----4-------------------------------------------------------------------------------|
-----2-------------------------------------------------------------------------------|

...bawalah si pujangga
--------------------------------------------------------------------------------------|
-------3------------------------------------------------------------------------------|
-------4------------------------------------------------------------------------------|
-------4------------------------------------------------------------------------------|
-------5------------------------------------------------------------------------------|
-------3------------------------------------------------------------------------------|

...bawalah dia bersama
--------------------------------------------------------------------------------------|
----------------8---------------------------------------------------------------------|
----------------9---------------------------------------------------------------------|
----------------8---------------------------------------------------------------------|
----------------9---------------------------------------------------------------------|
--------------------------------------------------------------------------------------|

tidurlah bidadari
agar kau bermimpi si pujangga
sehingga di pagi hari

jgn lupakan kami
yg bisa menemani
hadirlah sebelum
tika kala
bawalah si pujangga
bawalah dia bersama

solo (chordnya same je ngan yg time chorus)

sambungan lepas yg	-	ada ending die (masih ade solo di sini....)
			8
			9
			8
			9
			-

which is...

.............................(pujangga~~~~~~~)
-----10----9-----7------5-----------5--|
-----12----10----8------5-----------7--|
-----11----9-----7------6-----------6--|
-----12----11----9------5-----------7--|
-----10----9-----7------7-----------5--|
------------------------5--------------|

Tamat~~
            
Submit corrections

↑ Back to top | Tablatures and chords for acoustic guitar and electric guitar, ukulele, drums are parodies/interpretations of the original songs. You may use it for private study, scholarship, research or language learning purposes only