Home » H » Howlin Wolf »

Howlin Wolf - Smokestack Lightning Tabs

Artists:  A B C D E F G H I J K L M N O P Q R S T U V W X Y Z # 

Smokestack Lightning Tabs

(ver. 1) Click to play this song!
Howlin Wolf
Standard riff:

e --0-------3b/-----------------0-----------------------------------|
B ----------3b/-------------3---------------------------------------|
G --------------------3/4---------------3\2-------0-----------------|
D ------------------------------------------------------2-------2~--|
A ------------------------------------------------------------------|
E ------------------------------------------------------------------|

Variations: This is a very good jam tune so experimentation is the key.

e --0-------3b/-----------------------------------------------------|
B ----------3b/-------------3---------------------------------------|
G --------------------3/4-------4-------3\2-------0-----------------|
D ------------------------------------------------------2-------2~--|
A ------------------------------------------------------------------|
E ------------------------------------------------------------------|

e --0---------------------------0-----------------------------------|
B ----------3b/-------------3---------------------------------------|
G --------------------3/4---------------3\2-------0-----------------|
D ------------------------------------------------------2-------2~--|
A ------------------------------------------------------------------|
E ------------------------------------------------------------------|

e --3-------0-------------------0-----------------------------------|
B --------------------------3---------------------------------------|
G --------------------3/4---------------3\2-------0-----------------|
D ------------------------------------------------------2-------2~--|
A ------------------------------------------------------------------|
E ------------------------------------------------------------------|
            
Submit corrections

↑ Back to top | Tablatures and chords for acoustic guitar and electric guitar, ukulele, drums are parodies/interpretations of the original songs. You may use it for private study, scholarship, research or language learning purposes only