Home » H » Howard Shore »

Howard Shore - In Dreams Tabs

Artists:  A B C D E F G H I J K L M N O P Q R S T U V W X Y Z # 

In Dreams Tabs

(ver. 1) Click to play this song!
Howard Shore
Tuning: standard

e|-------------------------------------------------------------|
B|-------------------------------------------------------------|
G|-----------10-----------------10--12--14--12--10-------------|
D|8~--10--12-----12--10--8----12---------------------12~--10~--|
A|-------------------------------------------------------------|
E|-------------------------------------------------------------|

e|-----------------------------------------------------------|
B|-----------------------------------------------------------|
G|-----------10-------------------10--12---12--10------------|
D|8--10--12------12--10--8~----12-------------------12--10~--|
A|-----------------------------------------------------------|
E|-----------------------------------------------------------|

e|--------------------------------------------|
B|--------------------------------------------|
G|-------------12-14-15--15br-14-10-----------|
D|8--10--12---12--------------------12~--10~--|
A|--------------------------------------------|
E|--------------------------------------------|

e|-------------------------------------|
B|-------------------------------------|
G|-------------12-14-15--15b-15-17-19--|
D|8--10--12~---12----------------------|
A|-------------------------------------|
E|-------------------------------------|
            
Submit corrections

↑ Back to top | Tablatures and chords for acoustic guitar and electric guitar, ukulele, drums are parodies/interpretations of the original songs. You may use it for private study, scholarship, research or language learning purposes only