Home » H » House Of Heroes »

House Of Heroes - You Are The Judas Of The Cheerleading Squad Tabs

Artists:  A B C D E F G H I J K L M N O P Q R S T U V W X Y Z # 

You Are The Judas Of The Cheerleading Squad Tabs

(ver. 1) Click to play this song!
House Of Heroes
House of heroes is the best. learn this. play this. love this.


the timings a little tricky. listen to the song
Intro Thing
e|-------14-12-------12-----------------14-12-------12-------------|
B|----------------15----12------------12----------15----12--12-----|
G|-12/13-------12----------------12/13-------12-----------14--14---|
D|-----------------------------------------------------------------|
A|-----------------------------------------------------------------|
E|-----------------------------------------------------------------| x5


Then Pre-Chorus Thing
e|------------------------------------------------------------------------|
B|------------------------------------------------------------------------|
G|------------------------------------------------------------------------|
D|-7777777777777777-6666666666666666-55555555-4444-5555-22222222-11111111-|
A|------------------------------------------------------------------------|
E|------------------------------------------------------------------------|


Chorus Thing
e|----------------|   then>   e|--------14-12-------12-------------|
B|----------------|           B|------12----------15----12--12-----|
G|----------------|           G|-12/13-------12-----------14--14---|
D|2-2-2-2-22-2-22-|           D|-----------------------------------|
A|2-2-2-2-22-2-22-|           A|-----------------------------------|
E|0-0-0-0-00-0-00-| x2        E|-----------------------------------|


Break thing.
e|--------------------|           e|--------|--------------------------|
B|--------------------|   then>   B|--------|--------------------------|
G|--------------------|           G|--------|--------------------------|
D|---2--------2-------|           D|--------|---2------------2---------|
A|------2~--------5~--|           A|55555555|-------2-2-2--------5xx5--|
E|-0--0-----0---0-----|x4         E|--------|-0---0--------0---0-------| x4


Pre Chorus Thing
e|------------------------------------------------------------------------|
B|------------------------------------------------------------------------|
G|------------------------------------------------------------------------|
D|-7777777777777777-6666666666666666-55555555-4444-5555-22222222-11111111-|
A|------------------------------------------------------------------------|
E|-----------------------------------------------------------------------|x2


Chorus

e|------------------------------------|
G|------------------------------------|
B|------------------------------------|
D|-2-2-2-2-22-2-22--2-2-2-2-22-2-22~--|
A|-2-2-2-2-22-2-22--2-2-2-2-22-2-22~--|
E|-0-0-0-0-00-0-00--0-0-0-0-00-0-00~--|


After that chorus
e|-7-7--7--8--7--10--5--8--5~--3~--5--7-7--7--8--7--10--5--8-5~-3~-2~-0~~-|
B|-5-5--4--5--5--12--4--5--5~--3~--7--5-5--4--5--5--12--4--5-5~-3~-2~-1~~-|
G|---------------------------------^--------------------------------------|
D|---im not sure about these notes | -------------------------------------|
A|--------------------------------   -------------------------------------|
E|--------------------------------   -------------------------------------|


Pick Up to bridge 
e|---------------------|
B|---------------------|
G|---------------------|
D|------------22-2-22--|
A|------------22-2-22--|
E|------------00-0-00--|


Bridge Thing
e|------------------------------------------------------------------------|
B|------------------------------------------------------------------------|
G|------------------------------------------------------------------------|
D|-7777777777777777-6666666666666666-55555555-4444-5555-22222222-11111111-|
A|------------------------------------------------------------------------|
E|----------------------------------------------------------------------x2|


Bridge Continued
e|----------------------------------------------------------------------|
B|----------------------------------------------------------------------|
G|----------------------------------------------------------------------|
D|--7-7-7-7-77-7-77--6-6-6-6-66-6-66-5-5-5-5-44-2-22-2-2-2-2-11-1-11(1)-|
A|----------------------------------------------------------------------|
E|---0-0-0-0--0-0--0--0-0-0-0--0-0--0-0-0-0-0--0-0--0-0-0-0-0--0-0-[0]--|
                                                  play the note in [] the 
                                                  first time. Then on the 
                                                  second time, play the note
                                                  in ()


Ending
e|---------------|          e|-----------------------------------|
B|---------------|  then>   B|-----------------------------------|
G|---------------|          G|-----------------------------------|
D|--2-1~---2-0~--|          D|-2-2-2-2-22-2-22--2-2-2-2-22-2-22--|
A|-2-2----2-2----|          A|-2-2-2-2-22-2-22--2-2-2-2-22-2-22--|
E|---------------|          E|-0-0-0-0-00-0-00--0-0-0-0-00-0-00--|

and thats it. enjoy it. im writing some of their other songs. so be watching for them.
            
Submit corrections

↑ Back to top | Tablatures and chords for acoustic guitar and electric guitar, ukulele, drums are parodies/interpretations of the original songs. You may use it for private study, scholarship, research or language learning purposes only