Home » H » House Of Heroes »

House Of Heroes - Leave You Now Tabs

Artists:  A B C D E F G H I J K L M N O P Q R S T U V W X Y Z # 

Leave You Now Tabs

(ver. 1) Click to play this song!
House Of Heroes
-------------------------------------------------------------------------------

                             House of Heroes - Leave You Now

-------------------------------------------------------------------------------






Tuning: Standard (EADGBE)

Verse
   F#          C# D#     C# D#
E|-----------------------------------|
B|-----------------------------------|
G|-11--11--11------------------------|
D|-11--11--11--11-13-13--11-13-13-13-|
A|-------------11-13-13--11-13-13-13-|
E|-----------------------------------|

Chorus
   F#          C# D#     C# D#
E|-----------------------------------|
B|-11--11--11------------------------|
G|-11--11--11--10-12-12--10-12-12-12-|
D|-11--11--11--11-13-13--11-13-13-13-|
A|-9---9---9---11-13-13--11-13-13-13-|
E|-------------9--11-11--9--11-11-11-|

Bridge
(clean)                          (distortion)
E|---------------------------------------------------------------|
B|---------------------------------------------------------------|
G|---------------------------------------------------------------|
D|-8------9------10------11------8~--8~--9~--9~--10~-10~-11~-11~-|
A|-8(16x)-9(16x)-10(16x)-11(16x)-8~--8~--9~--9~--10~-10~-11~-11~-|
E|-6------7------8-------9-------6~--6~--7~--7~--8~--8~---9~--9~-|

Solo F#--C#-D#--C#-D#
Anyone?!

Outro
E|-------------------------------------|
B|-------------------------------------|
G|-------------------------------------|
D|-------------------------------------|
A|-9--------------9-11-11b13b11-9------|
E|---9--9--10-11------------------11-9-|


/   slide up
\   slide down
~   let ring
b   bend
h   hammer-on
p   pull-off
+   scr*pe harmonics
*   palm mute
            
Submit corrections

↑ Back to top | Tablatures and chords for acoustic guitar and electric guitar, ukulele, drums are parodies/interpretations of the original songs. You may use it for private study, scholarship, research or language learning purposes only