Home » H » House Of Heroes »

House Of Heroes - Bottle Rocket Tabs

Artists:  A B C D E F G H I J K L M N O P Q R S T U V W X Y Z # 

Bottle Rocket Tabs

(ver. 1) Click to play this song!
House Of Heroes
Tuning: Standard

e|---------------------------------------------------------------------------|
B|---------------------------------------------------------------------------|
G|--7b9--5----------------5b7---------5/7-5/7-5--5--5/7-5/7-5----------------|
D|----------7--5----7p5--------5--7---5/7-5/7-5--5--5/7-5/7-5----------------|
A|----------------------7-------------3/5-3/5-3--3--3/5-3/5-3----------------|
E|----------------8----------------------------------------------------------|


e|---------------------------------------------------------------------------|
B|---------------------------------------------------------------------------|
G|--7b9--5----------------5b7---------5/7-5/7-5-----5/7-5/7-5----------------|
D|----------7--5----7p5--------5--7---5/7-5/7-5-----5/7-5/7-5---5-6-7--------|
A|----------------------7-------------3/5-3/5-3-----3/5-3/5-3---5-6-7--------|
E|----------------8---------------------------------------------3-4-5--------|
            
Submit corrections

↑ Back to top | Tablatures and chords for acoustic guitar and electric guitar, ukulele, drums are parodies/interpretations of the original songs. You may use it for private study, scholarship, research or language learning purposes only