» » »

Hot Hot Heat - Oh, Goddamnit Bass

Artists:  A B C D E F G H I J K L M N O P Q R S T U V W X Y Z # 

Oh, Goddamnit Bass

(ver. 2) Click to play this song!
Hot Hot Heat
 Rating:
4/5 (4 votes)


 Oh, Goddamnit lessons Tabs too difficult? Try these video lessons and learn fast
 
                Submission by Paulie Jay

Bass tab - standard tuning.



Silent for first Verse and Bridge.

Then come in at VERSE 2

G-----------------------|-----------------------|---------------------|
D---------9---11-11-9---|---------9---11--11-13-|---------------------|
A-------9---------------|-------9---------------|-9--9---9-9--11--9---|
E-7--7------------------|-7--7------------------|---------------------|

G---------------------|-----------------------|-----------------------|
D-----------------9---|---------9---11-11-9---|---------9---11--11-13-|
A-9--9---9-9--11------|-------9---------------|-------9---------------|
E---------------------|-7--7------------------|-7--7------------------|

G---------------------|---------------4----|
D---------------------|-4-4---4----6-------|
A-9--9---9-9--11--9---|--------------------|
E---------------------|----------2---------|


BRIDGE "Oh, oh goddamnit..."

G-----------------|-----------------|-------------------|-------------|
D-----------------|-----------------|-2-2-2-2-2-2-2-1-2-|-4-----------|
A-----------------|-----------------|-------------------|-------------|
E-0-0-0-0-0-0-0-0-|-2-2-2-2-2-2-2-2-|-------------------|-------------|

G-----------------------|-----------------------|
D---------9---11-11-9---|---------9---11--11-13-|
A-------9---------------|-------9---------------|
E-7--7------------------|-7--7------------------|


CHORUS 1 "Shutdown, this is such a shame..."

G-------------|-------------|--------------|--------------|
D-------------|-------------|--------------|--------------|
A-2---2-1---1-|-------------|--------------|--------------|
E-------------|-4---4-2---2-|-0------0--0--|-2------2--2--|

G-------------|-------------|--------------|--------------|
D-------------|-------------|--------------|--------------|
A-2---2-1---1-|-------------|--------------|--------------|
E-------------|-4---4-2---2-|-0------0--0--|-2------2--2--|


VERSE 3 - exactly the same as Verse 2, then


BRIDGE "Oh, oh goddamnit..."

G-----------------|-----------------|-----------------|-------------|
D-----------------|-----------------|-----------------|-------------|
A-----------------|-----------------|-----------------|-------------|
E-0-0-0-0-0-0-0-0-|-2-2-2-2-2-2-2-2-|-0-0-0-0-0-0-0-0-|-----2-------|

G-----------------|-----------------|
D-----------------|-----------------|
A-----------------|-----------------|
E-0-0-0-0-0-0-0-0-|-2---------------|


CHORUS 2 su = slide up

G-------------|-------------|--------------|--------------|
D-------------|-------------|--------------|--------------|
A-2---2-1---1-|-------------|--------------|--------------|
E-------------|-4---4-2---2-|-0------0--0--|-2------2--2--|

G-------------|-------------|--------------|--------------|
D-------------|-------------|--------------|--------------|
A-2---2-1---1-|-------------|--------------|--------------|
E-------------|-4---4-2---2-|-0------0--0--|-2------2--2--|

G-------------|-------------|-------------------|-------------------------|
D-------------|-------------|-------------------|-------------------------|
A-------------|-------------|-------------------|-12-12-12-12-12-12-12-12-|
E-0------0--0-|-2------2--2-|-4-4-4-4-4-4-4-4su-|-------------------------|


CODA "Shut down, shut down, it's just such a shame..."
G-------------|-------------|------------|-------------|
D-------------|-------------|------------|-------------|
A-7---7-6---6-|-4---4-------|------------|-------------|
E-------------|-------7---7-|-5-----5--5-|-7------7--7-|

G-------------|-------------|------------|-------------|
D-------------|-------------|------------|-------------|
A-7---7-6---6-|-4---4-------|------------|-------------|
E-------------|-------7---7-|-5-----5--5-|-7------7--7-|

G-------------|-------------|------------|-------------|
D-------------|-------------|------------|-------------|
A-7---7-6---6-|-4---4-------|------------|-------------|
E-------------|-------7---7-|-5-----5--5-|-7------7--7-|

G-------------|-------------|-------------|-------------|-------------|
D-------------|-------------|-------------|-------------|-------------|
A-7---7-6---6-|-4---4-------|-4------4--4-|-------------|-7-----------|
E-------------|-------7---7-|-------------|-7------7--7-|-------------|

Perfomance tips - this is a short song but there is a lot going on and there
is a lot to remember. Get into position for the dip at the end of the verses. 
Resist the tempatation to make the verses more busy than they actually 
are - give the drums space to work in. Be in position for the key change at  
the coda.
            
Submit corrections



        Oh, Goddamnit lessons Hard to play? Try these video lessons and learn fast Oh, Goddamnit lessons
        
↑ Back to top | Tablatures and chords for acoustic guitar and electric guitar, ukulele, drums are parodies/interpretations of the original songs. You may use it for private study, scholarship, research or language learning purposes only