Home » H » Hot Chelle Rae »

Hot Chelle Rae - I Like To Dance Tabs

Artists:  A B C D E F G H I J K L M N O P Q R S T U V W X Y Z # 

I Like To Dance Tabs

(ver. 3) Click to play this song!
Hot Chelle Rae
ALBUM Lovesick Electric

TUNING: Standard (EADGBe)

[ x : Mute   ]
[ = : Ringout]
[ ^ : Bend   ]

[Intro]
e|-----------------------------------------------------------|
B|---------------------------------------------------^-------|
G|----------------7------5---------------------------11=====-|   (Guitar 2)
D|----7-----7---------------------3-xx--3------5-----11=====-|
A|--------------55-5---33-3---------xx---------------9-=====-|
E|--55-5---5-5------------------11-1xx-1-1---33-3------------|

[Intro Solo]
e|-------------------------------------------------|
B|-------------------------------------------------|
G|-------------------------------------------------|   (Guitar 1)
D|-----------------10-12-12^---12-10-12-10---------|
A|-12-12-10-12---12------------------------12-10---|
E|-------------------------------------------------|
 
e|-------------------------------------------------|
B|-------------------------------------------------|
G|-------------------------------------------------|
D|------------10-12-12^---12-10-12-10--------------|
A|-8-8-7-8—-8-------------------------12-10--------|
E|-------------------------------------------------|

It can also be played like this:
e|------------------------------------------------------------------------|
B|------------------------------------------------------------------------|
G|--------------5-7-7^---7-5-7-5--------------------5-7-7^---7-5-7-5------|
D|--7-7-5-7---7------------------7-5---------------------------------7-5--|
A|--------------------------------------8-8-7-8---8-----------------------|
E|------------------------------------------------------------------------|

[Chorus]
e|--------------------------------------------------------|
B|--------------------------------------------------------|
G|----------------7------5--------------------------------|   (Guitar 1&2)
D|----7-xx--7---------------------3-xx--3------5------6---|
A|------xx------55-5---33-3---------xx--------------------|
E|--55-5xx-5-5------------------11-1xx-1-1---33-3---44-4--|


e|--------------------------------------------------------|
B|--------------------------------------------------------|
G|-----The intro solo is going take me some time----------|   (Guitar 1)
D|--------------------------------------------------------|
A|--------------------------------------------------------|
E|--------------------------------------------------------|


e|---------------------------------------------------------|
B|---------------------------------------------------------|
G|----------------7------5---------------------------------|   (Guitar 2)
D|----7-xx--7---------------------3-xx--3------5------666--|
A|------xx------55-5---33-3---------xx----------------666--|
E|--55-5xx-5-5------------------11-1xx-1-1---33-3---44-44--|


[PreChorus]
e|--------------------------------------------------------|
B|--------------------------------------------------------|
G|-Strum--44444-666-555-----------------------------------|   (Guitar 1&2)
D|--with--44444-666-555-----------------------------------|
A|--Beat--22222-444-333-----------------------------------|
E|--------------------------------------------------------|


[Bridge]
e|--------------------------------------|
B|--------------------------------------|
G|--------------------------------------|    (Guitar 1&2)
D|---77--77-7-1010-----77--77-7-12-10---|
A|---77--77-7-8-8----- 77--77-7-10-8----| x2
E|---55--55-5-8-8------55--55-5-10-8----|


[Solo]
e|-------------------------------------------------------|
B|-------------------------------------------------------|
G|-------------------------------------------------------|   (Guitar 1)
D|--------------------------------------------------xxxx-|
A|--------------------------------------------------xxxx-|
E|--------------------------------------------------xxxx-|

e|------------------------------------|
B|------------------------------------|
G|------------------------------------|   (Guitar 2)
D|--7--------5--------8----------xxxx-|
A|--7-(x14)--5-(x14)--10-(x28)---xxxx-|
E|--5--------3--------10---------xxxx-|


=ORDER=


[Intro]
   -
[Intro Solo]
   -
[Chorus]
   -
[PreChorus]
   -
[Chorus]
   -
[PreChorus]
   -
[Chorus]
   -
[Bridge]
   -
[Chorus]
   -
[Bridge] x2
   -
[Solo]
   -
[Chorus] x2
   -
[Bridge]



(SP Thanks to gustavoaraujo999 for Intro Solo)
            
Submit corrections

↑ Back to top | Tablatures and chords for acoustic guitar and electric guitar, ukulele, drums are parodies/interpretations of the original songs. You may use it for private study, scholarship, research or language learning purposes only