Home » H » Hot Action Cop »

Hot Action Cop - Samuel L Jackson Tabs

Artists:  A B C D E F G H I J K L M N O P Q R S T U V W X Y Z # 

Samuel L Jackson Tabs

(ver. 1) Click to play this song!
Hot Action Cop
Intro van 0:00 t/m 0:10

   [*] [***] [**] [**] [*] [***]  [***] [**] [**] [*] [***]  [***] 
e|--------------------------------------------------------------------|
B|--------------------------------------------------------------------|
G|--4--4-4-4--4-4--4-4--4--4-4-4--4-4-4--4-4--4-4--4--4-4-4--4-4-4----|
D|--x--x-x-x--x-x--x-x--x--x-x-x--x-x-x--x-x--x-x--x--x-x-x--x-x-x----| 
A|--2--2-2-2--2-2--2-2--2--2-2-2--2-2-2--2-2--2-2--2--2-2-2--2-2-2----| 
D|--------------------------------------------------------------------|
 
    [**] [**] [*] [***]  [***] [**] [**] [*] ( Woooo!!!) 
e|--------------------------------------------------------------------|
B|--------------------------------------------------------------------|
G|---4-4--4-4--4--4-4-4--4-4-4--4-4--4-4--4---------------------------|
D|---x-x--x-x--x--x-x-x--x-x-x--x-x--x-x--x---------------------------| 
A|---2-2--2-2--2--2-2-2--2-2-2--2-2--2-2--2---------------------------|
D|--------------------------------------------------------------------|

Chorus

Guitar 2 

octaaf wordt hier gespeeld t/m Verse 1 , misschien hoort het tot Guitar 1
maar 
e|---------------------------------------------------------------|
B|---------------------------------------------------------------|
G|------------------4-4------------------------------------------|
D|--7\9-------------x-x------------------------------------------|
A|--7\9-------------2-2------------------------------------------|
D|--7\9----------------------------------------------------------|

Guitar 1 (0:09 - 0:29)

                    [A]                         [A]
e|---------------------------------------------------------------|
B|---------------------------------------------------------------|
G|---------------------------------------------------------------|
D|--7/9--9-9-9-9-9-9-9~---12/14-14-14-14-14-14-14-14~------------|
A|--7/9--9-9-9-9-9-9-9~---12/14-14-14-14-14-14-14-14~------------|
D|--7/9--9-9-9-9-9-9-9~---12/14-14-14-14-14-14-14-14~------------|

Verse 1 (0:29 - 0:47) (Yo here we go! start the mission,Head-on collision)

  Accent op D5 na een slide! dit wordt gespeeld 4 keer
e|---------------------------------------------------------------|
B|---------------------------------------------------------------|
G|---------------------------------------------------------------|
D|--7\9--12a---12\14--12-----------------------------------------|
A|--7\9--12a---12\14--12-----------------------------------------|
D|--7\9--12a---12\14--12-----------------------------------------| 

Pre-chorus (0:48 - 0:57) (Blood rushes through my head)
   [*][*][*]  [***]   [****]
e|---------------------------------------------------------------|
B|---------------------------------------------------------------|
G|--4--4--4---4-4-4---4-4-4-4------------------------------------|
D|--x--x--x---x-x-x---x-x-x-x------------------------------------|
A|--2--2--2---2-2-2---2-2-2-2------------------------------------|
D|---------------------------------------------------------------|
   [*][*][*]  [***]   [****]
e|---------------------------------------------------------------|
B|---------------------------------------------------------------|
G|--4--4--4---4-4-4---4-4-4-4------------------------------------|
D|--x--x--x---x-x-x---x-x-x-x------------------------------------|
A|--2--2--2---2-2-2---2-2-2-2------------------------------------|
D|---------------------------------------------------------------|
   [*][*][*]  [***]   [*]
e|---------------------------------------------------------|
B|---------------------------------------------------------|
G|--4--4--4---4-4-4----4~~---------------------------------|
D|--x--x--x---x-x-x----x~~---------------------------------|
A|--2--2--2---2-2-2----2~~---------------------------------|
D|---------------------------------------------------------|

Chorus (0:58 - 1:14) 

Dit wordt 7 keer gespeeld en bij de 8ste keer stop je bij de eerste
B5 + accent 

   [*]  [***]   [***]  [*]Accent A5
e|---------------------------------------------------------------|
B|---------------------------------------------------------------|
G|---------------------------------------------------------------|
D|--9---9-12-9--9-12-9--7----------------------------------------|
A|--9---9-12-9--9-12-9--7----------------------------------------|
D|--9---9-12-9--9-12-9--7----------------------------------------|


Solo (2:24 - 2:50) 

Feel free to revise the solo - I personally feel that its played on the B 
Rather than the G string. 

e|---------------------------------------------------------------|
B|---------------------------------------------------------------|
G|-----11^13~~~~~~~11-11-12p9-----/11~~~~14~~~14-14^16-14-12-11--|
D|---------------------------------------------------------------|
A|---------------------------------------------------------------|
D|---------------------------------------------------------------|

e|---------------------------------------------------------------|
B|---------------------------------------------------------------|
G|----14-14^16-12-11-12------------------------------------------|
D|------------------------12/14-9------/9------------------------|
A|---------------------------------------------------------------|
D|---------------------------------------------------------------|
Solo 2 (2:53 - 3:20) 

e|---------------------------------------------------------------|
B|---------------------------------------------------------------|
G|---------------------------------------------------------------|
D|---------------------------------------------------------------|
A|-2--2-5-2--2-5-2-0---------------------------------------------|
D|---------------------------------------------------------------|            
Submit corrections

↑ Back to top | Tablatures and chords for acoustic guitar and electric guitar, ukulele, drums are parodies/interpretations of the original songs. You may use it for private study, scholarship, research or language learning purposes only