Home » H » Hot Action Cop »

Hot Action Cop - Don Want Her To Stay Tabs

Artists:  A B C D E F G H I J K L M N O P Q R S T U V W X Y Z # 

Don Want Her To Stay Tabs

(ver. 1) Click to play this song!
Hot Action Cop
Hot Action Cop
Don't Want Her To Stay

INTRO

E--12-12-12-12-12-12-12-12-12-12-12-12---------
B--12-12-12-12-12-12-12-12-12-12-12-12---------
G----------------------------------------------
D----------------------------------------------
A----------------------------------------------
E----------------------------------------------


INTRO PART 2

E----------------------------------------------
B----------------------------------------------
G----------4-6-6-6-6---------------------------
D--2-2-4/6-4-6-6-6-6--6/4--2-------------------
A--2-2-4/6-2-4-4-4-4--6/4--2-------------------
E--0-0-2/4------------4/2--0-------------------


VERSE

E----------------------------------------------
B----------------------------------------------
G------6-6-------4-----------------------------
D--2-2-6-6-6-6-4-4-----------------------------
A--2-2-4-4-6-6-4-2-----------------------------
E--0-0-----4-4-2-------------------------------


CHORUS

E----------------------------------------------
B----------------------------------------------
G------4-4-----4-4-----4-4-----4-4-------------
D--7-7-4-4-7-7-4-4-7-7-4-4-7-7-4-4-------------
A--7-7-2-2-7-7-2-2-7-7-2-2-7-7-2-2-------------
E--5-5-----5-5-----5-5-----5-5-----------------


MIDDLE

E----------------------------------------------
B----------------------------------------------
G----------------------------------------------
D--7---9---7---9---7---9---7---9---------------
A--7---9---7---9---7---9---7---9---------------
E--5---7---5---7---5---7---5---7---------------


OUTRO

E----------------------------------------------
B----------------------------------------------
G--4-------------------------------------------
D--4-4-2---------------------------------------
A--2-4-2---------------------------------------
E----2-0---------------------------------------



INTRO
INTRO PART 2  x4
VERSE X2
CHORUS 
VERSE X2
CHORUS
INTRO PART 2  X4
MIDDLE
VERSE  
CHORUS 
INTRO PART 2 x8
OUTRO
            
Submit corrections

↑ Back to top | Tablatures and chords for acoustic guitar and electric guitar, ukulele, drums are parodies/interpretations of the original songs. You may use it for private study, scholarship, research or language learning purposes only