» » »

Horse Feathers - Altamont Chords

Artists:  A B C D E F G H I J K L M N O P Q R S T U V W X Y Z # 

Altamont Chords

(ver. 1) Click to play this song!
Horse Feathers
 Rating:
4.2/5 (30 votes)

 Altamont lessons Tabs too difficult? Try these video lessons and learn fast
 
                [Verse 1]
    u d u d
    & 4 & 1 & 2 & 3 & 4 & 1 & 2 & 3
e|--1-----1-------------------------|
B|--3-3-3-3-------------------------|
G|--2-0-0-2-------------------------|
D|--0-2-2-0-------------------------| repeat
A|--0-0-0-0-------------------------|
E|--0-----0-------------------------|
                  Memories
                  on there minds
                  They were caught red handed

    Dm                        A7sus4
    & 4 & 1 & 2 & 3 & 4 & 1 & 2 & 3 & 4 &
e|--1-----1-----------------1-------------|
B|--3-3-3-3-----------------3-3-3-3-3-3-3-|
G|--2-0-0-2-----------------2-0-0-0-0-0-0-|
D|--0-2-2-0-----------------0-2-2-2-2-2-2-|
A|--0-0-0-0-----------------0-0-0-0-0-0-0-|
E|--0-----------------------0-------------|
                  wasting time

    Dm                      A7sus4
    1 & 2 & 3 & 4 & 1 & 2 & 3 & 4 &
e|--1---1-------1-------1-1---------|
B|--3---3-------3-------3-3-3-3-3-3-|
G|--0h2-2-------2-------2-2-0-0-0-0-|
D|--0---0-------0-------0-0-2-2-2-2-| repeat
A|--0---0-------0-------0-0-0-0-0-0-|
E|--0---0-------0-------0-0---------|
            Brazen boys
            they were wise
            They were pinching pennies
            for impatient brides

Note: This last tab section above is used throughout Verse 2. 


[Riff]
    3 &  4 & 1
e|--------------|
B|--------------|
G|--------------|
D|--3p2--0------|
A|--------------|
E|--------h5p0--|
    Make a   dime


[Verse 1]
Dm A7sus4 Dm N.C.
             Memories
Dm A7sus4 Dm N.C.
             On their minds
Dm A7sus4 Dm N.C.             N.C
             They were caught red handed
Dm A7sus4 Dm N.C.       A7sus4
             Wasting time
Dm                A7sus4
   Brazen boys,
Dm                A7sus4
   They were wise
Dm                         A7sus4
   They were pinching pennies
Dm                      A7sus4
   For impatient brides


[Chorus]
Fsus2/C        Am7
Damned if they don't
              Dm             Dm
Oh, they were damned if they do
Fsus2/C   Am7
Time to   time
                 Dm                   Dm
They would write poems that would not rhyme
N.C
Or make a dime


[Verse 2]
Dm                A7sus4
   Neon lights
Dm                A7sus4
   Glare on streets
Dm                          A7sus4
   They were spraining sideways
Dm                    A7sus4
   Pooling at their feet
Dm                   A7sus4
   It's a setting sun
Dm                      A7sus4
   It's a slackening tide
Dm                     A7sus4
   Should we throw a funeral
Dm                    A7sus4
   At the Eagles Dine?


[Chorus]
Fsus2/C           Am7
   Damned if they don't
                 Dm             Dm
   Oh, they were damned if they do
Fsus2/C    Am7
   Time to time
                    Dm                   Dm
   They would write poems that would not rhyme
                Dm                Dm
   Maybe that's all that they can do
                      Dm                 Dm
   With the ladies at home humming their tune
   N.C.
   Without a ?clue?


[Instrumental]
    Dm
    1 & 2 & 3 & 4 & 1 & 2 & 3 & 4 &
e|------1-1-------------1-1----------|
B|------3-3-----3-------3-3----------|
G|------2-2-----0-------2-2----------|
D|--0-------2---------------3p2------|
A|-----------------------------h3p0--|
E|------------------0----------------|


[Chorus]
Fsus2/C           Am7
   Damned if they don't
                 Dm             Dm
   Oh, they were damned if they do
Fsus2/C    Am7
   Time to time
                    Dm                   Dm
   They would write poems that would not rhyme
   N.C.
   Or make a dime


[Instrumental]
Dm


[Verse 3]
N.C.
   Memories on their minds
N.C.
   Brazen boys were wise
N.C.
   They were pinching pennies
N.C.                     A7sus4
   For impatient brides
Dm                   A7sus4
   It's a setting sun
Dm                      A7sus4
   It's a slackening tide
Dm                      A7sus4
   Don't get caught red handed
Dm         Dm
   Wasting time


[Outro]
e|------------|
B|-1-------3--|
G|-0-------2--|
D|-2-------0--|
A|-3-2---0-0--|
E|-----5---0--|
       ^From nut

            
Submit corrections


        Altamont lessons Hard to play? Try these video lessons and learn fast Altamont lessons
        
↑ Back to top | Tablatures and chords for acoustic guitar and electric guitar, ukulele, drums are parodies/interpretations of the original songs. You may use it for private study, scholarship, research or language learning purposes only