» » »

Hootie And The Blowfish - Let Her Cry Tabs

Artists:  A B C D E F G H I J K L M N O P Q R S T U V W X Y Z # 

Let Her Cry Tabs

(ver. 1) Click to play this song!
Hootie And The Blowfish
 Rating:
4/5 (15 votes)

 Let Her Cry lessons Tabs too difficult? Try these video lessons and learn fast
 
                G                      D
	She sits alone by a lampo-ost
	C                                           G 
	Trying to find a thought that's escaped her mind
	G                               D
	She says there's the one I love the most
	C                   G
	his type's not far behind

	G			D
	She never lets me in	only tells me where she's been
	C                         G
	when she's had to much to drink
	G                                D
	I say that I don't care   I just run my hands through her dark hair
	C                                          G
	then I pray to God, "You gotta help me fly away"   (and just)

chorus:
	        C              G
	let her cry	if the tears fall down like rain
	        C             Em            D
	let her sing	If it eases all her pain
	        C               G
	let her go	let her walk right out on me
          	   D
	and if the sun comes up tomorrow, 
                C             G
	let her be,   let her be

during verse

e|-7---7---7--7---7----------------------------------
B|---8---8------8---8-----12---12---12-12---12-------
G|--------------------or----12---12------12---12-----
D|---------------------------------------------------
A|---------------------------------------------------
E|---------------------------------------------------

	G      D    C    G
	[4 bars solo]
1st Solo

e|---------------------------------------------------
B|---------------------------------------------------
G|--------------------7-7h9p7---------12-12-12-12-12-
D|----------------7-9---------9p7-9-9----------------
A|-10p7-10-10--10------------------------------------
E|---------------------------------------------------

e|---------------------------------------------------
B|---------------------------------------------------
G|-9/7-7-7h9p7-----------------------7-7h9p7---------
D|-------------9p7-9p7-9p7-------7-9---------9-7-----
A|-------------------------10-10-----------------10--
E|---------------------------------------------------


verse 2
	This morning I woke up alone    found a note standing by the phone
	saying "maybe, maybe I'll be back someday"
	I wanted to look for you
	you walked in, I didn't know just what I should do
	So, I sat back down, had a beer and felt sorry for myself

	[chorus]

	[solo - 8 bars over verse]

2nd Solo over 3rd verse

e|---------------------------------------------------
B|-12-12p10------------------------------------------
G|----------9-12-----7-7h9-7--7h9-12-12h14-12~~~~~~--
D|---------------7h9---------------------------------
A|---------------------------------------------------
E|---------------------------------------------------

e|----------------------------------------------------------
B|-12-12p10------------------------------------12---12------
G|----------9-12-----7-7h9-7--7h9-12-12h14-12-----12--12----
D|---------------7h9----------------------------------------
A|----------------------------------------------------------
E|----------------------------------------------------------

         [chorus]

verse 3
	last night I tried to leave
	cried so much I could not beleive
	she was the same girl I fell in love with long ago
	she went in the back to get high
	I sat down on my couch and cried yelling
	"Whoa Lord whoa, please help me.  Won't you hold my hand"

	[chorus - ends differently as....]
                   D                              G
	and if the sun comes up tomorrow, let her be

at the end of this chorus (just as it says let her be)

e|---------------------------------------------------
B|-----------------10/12-12-12-12-10-----------------
G|---------7h9-7h9-------------------12~~~~----------
D|-7h9-7h9-------------------------------------------
A|---------------------------------------------------
E|---------------------------------------------------


	[chorus]

Please rate
            
Submit corrections


        Let Her Cry lessons Hard to play? Try these video lessons and learn fast Let Her Cry lessons
        
↑ Back to top | Tablatures and chords for acoustic guitar and electric guitar, ukulele, drums are parodies/interpretations of the original songs. You may use it for private study, scholarship, research or language learning purposes only