» » »

Homestuck - Verdancy Bassline Bass

Artists:  A B C D E F G H I J K L M N O P Q R S T U V W X Y Z # 

Verdancy Bassline Bass

(ver. 1) Click to play this song!
Homestuck
 Rating:
4.3/5 (22 votes)


 Verdancy Bassline  lessons Tabs too difficult? Try these video lessons and learn fast
 
                G|-7---7---7----------|--7--7---7------------|--7--7--7-------------|--7--7--7---------------| (x2)
D|9-9-8-8-7-7---------|-9-9-8-8-7-7----------|-9--8--7--------------|-9--8--7----------------|
A|------------7-7-7-7-|--------------7-7-7-7-|----------7-7-7-7-9-9-|-----------7-7-9-7-9-7--|
E|--------------------|----------------------|----------------------|------------------------|

G|-----5------5--7-|-----5------5--7-|-----9---9---9-10-12-10-|-9-10p9h10p9-9----|
D|-7-7----5-7------|-7-7----5-7------|-7-7---7---7------------|---------------7--|
A|-----------------|-----------------|------------------------|------------------|
E|-----------------|-----------------|------------------------|------------------|

G|--------9-10-12-------12-14-15-|--------9-10-12--------12-14-15-| 
D|-9-10-12-------9-10-12---------|-9-10-12--------9-10-12---------|
A|-------------------------------|--------------------------------|
E|-------------------------------|--------------------------------|
                                                                    (Let ring out)
G|--------9-10-12-------12-14-15-|--------9-10-12--------12-15-17-|-17-----------| 
D|-9-10-12-------9-10-12---------|-9-10-12--------9-10-12---------|--------------|
A|-------------------------------|--------------------------------|--------------|
E|-------------------------------|--------------------------------|--------------|            
Submit corrections



        Verdancy Bassline  lessons Hard to play? Try these video lessons and learn fast Verdancy Bassline  lessons
        
↑ Back to top | Tablatures and chords for acoustic guitar and electric guitar, ukulele, drums are parodies/interpretations of the original songs. You may use it for private study, scholarship, research or language learning purposes only