» » »

Homestuck - Spider8Reath Tabs

Artists:  A B C D E F G H I J K L M N O P Q R S T U V W X Y Z # 

Spider8Reath Tabs

(ver. 1) Click to play this song!
Homestuck
 Rating:
2.8/5 (23 votes)

 Spider8Reath  lessons Tabs too difficult? Try these video lessons and learn fast
 
                0:00 - intro
e|-------------------------------------------------------------|
B|----------------------------------3--------------------------|
G|--------------------------3---3-5----------------------------|
D|------------------3---3-5---5--------------------------------|
A|--------------3-5---5----------------------------------------|
D|--15\\5---3/5------------------------------------------------|

e|-------------------------------------------------------------|
B|-6p3-6p3-5p3--6p3-6p3-6p3-5p3--6p3-6p3-5p3--6p3-6p3-6p3-5p3--|
G|-------------------------------------------------------------|
D|-------------------------------------mess with the whammy----|
A|-------------------------------------------------------------|
D|-------------------------------------------------------------|

e|--------------------------------------------------------------|
B|---------*--------------3-------------------------------------|
G|-5/7-5-3-5b7-5-3--------3-------------------------------------|
D|-----------------5-3-5--5------------------------5---------5--|
A|-------------------------------------------------5---------5--|
D|-------------------------------\\12-\\10-\\8-\\7-5---------5--|


0:22 - main riff
e|------|----------------------------------------------|
B|------|----------------------------------------------|
G|------|----------------------------------------------|
D|------|----------------------------------------3-----|
A|------|----5----4----3------------5----4---345---543-|
D|-0345-|-55---55---55-----4305--55---55---------------|

e|-----------------------------------------------------|
B|-----------------------------------------------------|
G|-----------------------------------------------------|
D|-------------------------------------------8--10-----|
A|-----------5----4----3------------5----4---8--10-----|
D|----5---55---55---55-----4305--55---55-----8--10-----|


0:35 - verse
e|-----------------------------------------------------|
B|-----------------------------------------------------|
G|-----------------------------------------------------|
D|-----------------------------------------------3-----|
A|-----------5----4----3------------5----4---345---543-|
D|--------55---55---55-----4305--55---55---------------|

e|-----------------------------------------------------|
B|-----------------------------------------------------|
G|-----------------------------------------------------|
D|-----------------------------------------------3-----|
A|-----------5----4----3------------5----4---345---5433|
D|----5---55---55---55-----4305--55---55---------------|

e|-------------------------------|-------------------------------|
B|-------------------------------|-------------------------------|
G|-------------------------------|-------------------------------|
D|------5----4----0-3-0-2-0-2h3--|------5----4----0-3-0-2-0-2h3--|
A|-3-33---33---3-----------------|-3-33---33---3-----------------|
D|-------------------------------|-------------------------------|

e|-----------------------------------------------------|
B|-----------------------------------------------------|
G|-----------------------------------------------------|
D|-----------------------------------------------3-----|
A|-----------5----4----3------------5----4---345---543-|
D|----5---55---55---55-----4305--55---55---------------|

e|-----------------------------|-------------------------------|
B|-----------------------------|-------------------------------|
G|-----------------------------|-------------------------------|
D|------7----6----5-3----------|------5----4----0-3-0-1-0-1h3--|
A|-5-55---55---55-----543------|-3-33---33---3-----------------|
D|-----------------------------|-------------------------------|

e|-----------------------------------------------------|
B|-----------------------------------------------------|
G|-----------------------------------------------------|
D|-----------------------------------------------3-----|
A|-----------5----4----3------------5----4---345---543-|
D|--------55---55---55-----4305--55---55---------------|

e|-----------------------------------------------------|
B|-------------------------------------------6---------|
G|-------------------------------------------7---------|
D|-------------------------------------------5---------|
A|-----------5----4----3------------5----4-------------|
D|----5---55---55---55-----4305--55---55---------------|



1:00 - solo
e|-------------------------------------------------------------|
B|-------------------------------------------------------------|
G|-------------------------------------------------------------|
D|----------8----8-10b12-10b12-10-8----------------------------|
A|-------10---10--------------------10-8-10--------------------|
D|-------------------------------------------------------------|

e|---------------------------------------------------------------------|
B|---------------------------------------------------------------------|
G|------------10-9-7-----7---------------------------------------------|
D|----------8---------10-----10-8-10-10--10-8----8---10----------------|
A|-------10-----------------------------------10---------10------------|
D|---------------------------------------------------------------------|

e|-------------------------------------------------------------|
B|------------------10b11--------------------------------------|
G|------------------------10-7---------------------------------|
D|--8--8----10-8-10------------10-8----8----8------------------|
A|----------------------------------10---10--------------------|
D|-------------------------------------------------------------|

e|-----------------------------------------------------------------|
B|-----------------------------------10b11-10-8-10-8--11---8----11-|
G|------------10-9--7----7--------10-------------------------10----|
D|-------8-10---------10-----10-8----------------------------------|
A|-10--------------------------------------------------------------|
D|-----------------------------------------------------------------|


1:29
e|-------------------------------------------------------------------|
B|----------------11-----------11-13b15--11-10-11-10----11-10--------|
G|--/12--12-10-12----12--10-12-----------------------10-------10-12--|
D|-------------------------------------------------------------------|
A|-------------------------------------------------------------------|
E|-------------------------------------------------------------------|

e|-------------------------------------------------------------------10----|
B|----------------11-----------11-13--11-10-11-10--------------11-13-------|
G|--/12--12-10-12----12--10-12--------------------10-12------12---------12-|
D|-------------------------------------------------------------------------|
A|-------------------------------------------------------------------------|
E|-------------------------------------------------------------------------|


1:50 - bridge
e|-------------------|--------------------|
B|-6/8-88------------|-6/8-88-------------|
G|-5/7-77--7-----3h5-|-5/7-77--7---5-3----|
D|-3/5-55--5-3h5-----|-3/5-55--5-------5--|
A|-------------------|--------------------|
D|-------------------|--------------------|

e|-------------------|--------------------|
B|-6/8-88------------|-6/8-88------4--6---|
G|-5/7-77--7-----3h5-|-5/7-77--7---5--7---|
D|-3/5-55--5-3h5-----|-3/5-55--5----------|
A|-------------------|--------------------|
D|-------------------|--------------------|


2:00 - bridge 2 aka vriskas theme
e|-------------------------------------------------------------|
B|-------------------------------------------------------------|
G|-------------------------------------------------------------|
D|-/8-----------8------------------11---10---8-----------------|
A|----10---8-10---8-10--8-8-8-10-8----8----8-------------------|
D|-------------------------------------------------------------|

e|-----------------------------------------------------------|
B|-----------------------------------------------------------|
G|-----------------10----------------------------------------|
D|-12-12--12-10-12-----12-10-12-10-8--8-10-8-----------------|
A|-------------------------------------------10--8-9-10------|
D|-----------------------------------------------------------|
D|-----------------------------------------------------------|


2:08 - sax solo
e|-----------------------------------------------------|
B|-----------------------------------------------------|
G|-----------------------------------------------------|
D|-----------------------------------------------3-----|
A|-----------5----4----3------------5----4---345---543-|
D|--------55---55---55-----4305--55---55---------------|

e|-----------------------------------------------------|
B|-----------------------------------------------------|
G|-----------------------------------------------------|
D|-----------------------------------------------3-----|
A|-----------5----4----3------------5----4---345---5433|
D|----5---55---55---55-----4305--55---55---------------|

e|-------------------------------|-------------------------------|
B|-------------------------------|-------------------------------|
G|-------------------------------|-------------------------------|
D|------5----4----0-3-0-2-0-2h3--|------5----4----0-3-0-2-0-2h3--|
A|-3-33---33---3-----------------|-3-33---33---3-----------------|
D|-------------------------------|-------------------------------|

e|-----------------------------------------------------|
B|-----------------------------------------------------|
G|-----------------------------------------------------|
D|-----------------------------------------------3-----|
A|-----------5----4----3------------5----4---345---543-|
D|----5---55---55---55-----4305--55---55---------------|

e|-----------------------------|-------------------------------|
B|-----------------------------|-------------------------------|
G|-----------------------------|-------------------------------|
D|------7----6----5-3----------|------5----4----0-3-0-1-0-1h3--|
A|-5-55---55---55-----543------|-3-33---33---3-----------------|
D|-----------------------------|-------------------------------|

e|-----------------------------------------------------|
B|-----------------------------------------------------|
G|-----------------------------------------------------|
D|-----------------------------------------------3-----|
A|-----------5----4----3------------5----4---345---543-|
D|--------55---55---55-----4305--55---55---------------|

e|-6------------------------------------------------------------|
B|-8------------------------------------------------------------|
G|-7------------------------------------------------------------|
D|-5------------------------------------------------------------|
A|-5------------------------------------------------------------|
D|-5------------------------------------------------------------|            
Submit corrections


        Spider8Reath  lessons Hard to play? Try these video lessons and learn fast Spider8Reath  lessons
        
↑ Back to top | Tablatures and chords for acoustic guitar and electric guitar, ukulele, drums are parodies/interpretations of the original songs. You may use it for private study, scholarship, research or language learning purposes only