» » »

Homestuck - Showtime Haunting Fingerstyle Refrain Tabs

Artists:  A B C D E F G H I J K L M N O P Q R S T U V W X Y Z # 

Showtime Haunting Fingerstyle Refrain Tabs

(ver. 1) Click to play this song!
Homestuck
 Rating:
4.4/5 (11 votes)

 Showtime Haunting Fingerstyle Refrain  lessons Tabs too difficult? Try these video lessons and learn fast
 
                    Q    Q    E  E     Q    Q    E  E     Q    Q    Q       Q    Q    Q       Q    Q    E  E   
E||------------------|--0------------0--|--2---------3----|--5---------2----|--3------------0--|
B||--3---------2--3--|------------3-----|-------3----3----|-----------------|------------0-----|
G||-------4----------|-------2----------|-------2----2----|------------4----|------------------|
D||-------4----------|-------2----------|--0--------------|-------0---------|-------2----------|
A||--2---------------|--0---------------|-----------------|-------0---------|-------2----------|
D||------------------|------------------|-----------------|--0--------------|--2---------------|


     Q    Q    E  E     Q    Q    E  E     Q    E  E  Q       Q    Q    E  E     Q    Q    E  E   
E||--2---------------|--0------------0--|--2----------0----|------------------|--0------------0--|
B||-------3-------3--|------------2-----|-------2--3--2----|--3---------2--3--|------------3-----|
G||-------2----2-----|-------2----2-----|--3---------------|-------4----------|-------2----------|
D||--0---------------|-------2----2-----|--4----------2----|-------4----------|-------2----------|
A||------------------|--0---------------|------------------|--2---------------|--0---------------|
D||------------------|------------------|------------------|------------------|------------------|


  Q    E  E  E  E     Q    E  E  Q       Q    Q    E  E     Q    Q    E  E     Q    Q    E  E   
E||--2----------2--3--|--5---------------|--3----0-------0--|--2---------0-----|------------------|
B||-------------3-----|-------------3----|------------0-----|-------2-------2--|------------3--2--|
G||----------2--2-----|----------2--2----|-------0----------|-------3----------|--4---------------|
D||-------0-----------|-------0-----0----|--2---------------|-------4----------|-------4----------|
A||-------0-----------|-------0----------|-------2----------|--1---------------|--2---------------|
D||--0----------------|--0---------------|------------------|------------------|------------------|


  H        E  E     E  E  E  E  E  E     E  E  E  E  E  E     E  E  E  E  E  E   
E||-----------------|--------------------|--0--------------0--|--2-----------5--3--|
B||-----------0--2--|--3-----------0--3--|--------------2-----|--3-----3-----------|
G||--4--------------|--4-----4-----------|--2-----2-----------|-----2-----2--------|
D||--4--------------|-----4-----4--------|-----2-----2--------|--0-----------------|
A||--2--------------|--2-----------------|--0-----------------|--------------------|
D||-----------4-----|--------------------|--------------------|--------------------|


  E  E  E  E  Q       E  E  E  E  E  E     E  E  E  E  E  E     E  E  E  E  E  E   
E||--2-----------2----|--3-----0--3-----0--|--2--------2--------|--0--------0--5--3--|
B||--------------3----|-----0--------0-----|--------3--------3--|--------2-----------|
G||-----------2--2----|--------------------|-----2--------2-----|-----2--------------|
D||--------0----------|--------2-----------|--------0-----------|--------------------|
A||-----0-------------|-----2--------------|-----0--------------|--0-----0-----------|
D||--0----------------|--2-----------------|--0-----------------|-----2--------------|


     Q    E  E  Q       E  E  E  E  E  E     E  E  E  E  E  E     E  E  E  E  E  E   
E||--2----------0----|--------------------|--0--------------0--|--2-----------2--3--|
B||-------------2----|--3-----------0--3--|--------------2-----|--------3-----------|
G||--2---------------|--------4-----------|--------2-----------|-----2-----2--------|
D||----------2--4----|-----4-----4--------|-----2-----2--------|--0-----------------|
A||-------4----------|--2-----------------|--0-----------------|--------------------|
D||--4---------------|--------------------|--------------------|--------------------|


     E  E  Q    Q       E  E  E  E  E  E     E  E  E  E  E  E     E  E  E  E  E  E     H.            
E||--2---------------|--3-----0--3-----0--|--2--------2--------|-----------2--------|---------------||
B||-------------3----|-----0--------0-----|--------2--------2--|--0-----3-----5--2--|---------------||
G||-------------2----|--------------------|-----3--------3-----|--------------------|--4------------||
D||--------0---------|--------2-----------|--------------------|-----4--------------|---------------||
A||-----0------------|-----2--------------|--4-----4-----------|--2-----2-----------|--2------------||
D||--0---------------|--2-----------------|--------------------|--------------------|---------------||
            
Submit corrections


        Showtime Haunting Fingerstyle Refrain  lessons Hard to play? Try these video lessons and learn fast Showtime Haunting Fingerstyle Refrain  lessons
        
↑ Back to top | Tablatures and chords for acoustic guitar and electric guitar, ukulele, drums are parodies/interpretations of the original songs. You may use it for private study, scholarship, research or language learning purposes only