» » »

Homestuck - Purple Tyrant Tabs

Artists:  A B C D E F G H I J K L M N O P Q R S T U V W X Y Z # 

Purple Tyrant Tabs

(ver. 1) Click to play this song!
Homestuck
 Rating:
2.5/5 (26 votes)

 Purple Tyrant  lessons Tabs too difficult? Try these video lessons and learn fast
 
                0:00
e|-------------------------------------------------------------|
B|-----17--------17-------17-------17-------17-18-17-------17--|
G|-----17--------17-------17-------17-------17-17-17-------17--|
D|-19------19-18----18-17----17-16----16-15----------15-14-----|
A|-------------------------------------------------------------|
E|-------------------------------------------------------------|

e|-------------------------------|-----------------------------|
B|--17-18-17----17---------------|-----------------------------|
G|-----------19------------------|-----------------------------|
D|-------------------------16-18-|-----------------------------|
A|---------------------19--------|-----------------------------|
E|-------------------------------|-----------------------------|


== Lead ==

0:00
e|-------------------------------------------------------------|
B|------------------------------------17-18-17-----------------|
G|-------------------------------------------------------------|
D|-------------------------------------------------------------|
A|-------------------------------------------------------------|
E|-------------------------------------------------------------|

0:12
e|-------------------------------------------------------------|
B|-------------15-17---18-17------17-------------------17------|
G|-14---16-17------------------17------17-14---------------14--|
D|-------------------------------------------15-14-------------|
A|-------------------------------------------------------------|
E|-------------------------------------------------------------|

0:12
e|-------------12--12---12---13-12----12------12-------------------|
B|-------13-15---------------------15------13------13--------------|
G|-14-16----------------------------------------------14-----------|
D|-------------------------------------------------------15-14-----|
A|-----------------------------------------------------------------|
E|-----------------------------------------------------------------|

e|---------------17-----------------------------------------|
B|-17---------17----17--------------------------------------|
G|-----14--17----------17-----------------------------------|
D|----------------------------------------------------------|
A|----------------------------------------------------------|
E|----------------------------------------------------------|

0:38
e|---------------------------------------------------------------|
B|----------15-17--17---18-17-15-17------17----------------17----|
G|-14-16-17---------------------------17------17-14-----------14-|
D|--------------------------------------------------15-14--------|
A|---------------------------------------------------------------|
E|---------------------------------------------------------------|

0:47
e|-----------------------------------------------------------------|
B|----------15-17---17--17---18-17-15-17------17-------------------|
G|-14-16-17--------------------------------17------17-14-----------|
D|-------------------------------------------------------15-14-----|
A|-----------------------------------------------------------------|
E|-----------------------------------------------------------------|

e|---------------17--------------------------------------------|
B|-17---------17----17-----------------------------------------|
G|-----14--17----------17--------------------------------------|
D|-------------------------------------------------------------|
A|-------------------------------------------------------------|
E|-------------------------------------------------------------|

0:57
e|-------------------------------------------------------------|
B|-------------15-17---18-17------17-------------------17------|
G|-14---16-17------------------17------17-14---------------14--|
D|-------------------------------------------15-14-------------|
A|-------------------------------------------------------------|
E|-------------------------------------------------------------|

1:02
e|-----------------------------------------------------------------|
B|----------15-17---17--17---18-17-15-17------17-------------------|
G|-14-16-17--------------------------------17------17-14-----------|
D|-------------------------------------------------------15-14-----|
A|-----------------------------------------------------------------|
E|-----------------------------------------------------------------|

e|---------------17--------------------------------------------|
B|-17---------17----17-----------------------------------------|
G|-----14--17----------17--------------------------------------|
D|-------------------------------------------------------------|
A|-------------------------------------------------------------|
E|-------------------------------------------------------------|

1:12
e|-----------------------------------------------------------------|
B|----------15-17---17--17---18-17-15-17------17-------------------|
G|-14-16-17--------------------------------17------17-14-----------|
D|-------------------------------------------------------15-14-----|
A|-----------------------------------------------------------------|
E|-----------------------------------------------------------------|
?
1:14 
e|-------------------------------------------------------------|
B|-------------------------------------------------------------|
G|--------------->:?------(Miracles)---------------------------|
D|-------------------------------------------------------------|
A|-------------------------------------------------------------|
E|-------------------------------------------------------------|

1:35
e|-------------------------------------------------------------|
B|----------15-17--------15-17-----13-15-----------------------|
G|-14-16-17--------16-17--------14-----------------------------|
D|-----------------------------------------14------------------|
A|-------------------------------------------------------------|
E|-------------------------------------------------------------|

e|-------------------------------------------------------------|
B|-------------------------------------------------------------|
G|-------------------------------------------------------------|
D|-------------------------------------------------------------|
A|-------------------------------------------------------------|
E|-------------------------------------------------------------|

e|-------------------------------------------------------------|
B|-------13----13----------------------------------------------|
G|----14----14----14-12-14-------------------------------------|
D|-14----------------------------------------------------------|
A|-------------------------------------------------------------|
E|-------------------------------------------------------------|

e|-------------------------------------------------------------|
B|-->:????????-------(Miracles pt.2)---------------------------|
G|-------------------------------------------------------------|
D|-------------------------------------------------------------|
A|-------------------------------------------------------------|
E|-------------------------------------------------------------|


2:08
e|-------------------------------------------------------------|
B|--------------------15-17--15----15-17-----------------------|
G|-14---14-16-17---17-----------17-----------------------------|
D|-------------------------------------------------------------|
A|-------------------------------------------------------------|
E|-------------------------------------------------------------|

e|-------------------------------------------------------------|
B|-17--17-18-17-15-17--15-----------17-------------------------|
G|------------------------17-16-14-----16-13-------------------|
D|-------------------------------------------------------------|
A|-------------------------------------------------------------|
E|-------------------------------------------------------------|

e|-------------------------------------------------------------|
B|--------------------15-17--15----15-17-----------------------|
G|-14---14-16-17---17-----------17-----------------------------|
D|-------------------------------------------------------------|
A|-------------------------------------------------------------|
E|-------------------------------------------------------------|

e|-------------------------------------------------------------|
B|-----------------????----------------------------------------|
G|-------------------------------------------------------------|
D|-----------------------------doable--------------------------|
A|-------------------------------------------------------------|
E|-------------------------------------------------------------|

e|-------------------------------------------------------------|
B|-------------------------------------------------------------|
G|-----14----16----17----16----13------------------------------|
D|- 14----14----14----14----14----14---------------------------|
A|-------------------------------------------------------------|
E|-------------------------------------------------------------|

e|-------------------------------------------------------------|
B|---------------5-7-8-7---------------------------------------|
G|-------3-4-6-7-----------------------------------------------|
D|-4-6-7-------------------------------------------------------|
A|-------------------------------------------------------------|
E|-------------------------------------------------------------|

2:13
e|-------------5-7-9-10-12-10-9-7-5----------------------------|
B|-------5-7-8-------------------------------------------------|
G|-4-6-7-------------------------------------------------------|
D|-------------------------------------------------------------|
A|-------------------------------------------------------------|
E|-------------------------------------------------------------|

2:20
e|-------------------------------------------------------------|
B|-------5-7--5---5-7------------------------------------------|
G|-4-6-7--------7------6---6-----------------------------------|
D|-----------------------8---4---------------------------------|
A|-------------------------------------------------------------|
E|-------------------------------------------------------------|

2:34
e|-------------------------------------------------------------|
B|-------------------------------------------------------------|
G|-------------------------------------------------------------|
D|-------------------------------------------------------------|
A|-------------------------------------------------------------|
E|-------------------------------------------------------------|

2:40
e|-------------------------------------------------------------|
B|-------------------------------------------------------------|
G|-------------------------------------------------------------|
D|-------------------------------------------------------------|
A|-------------------------------------------------------------|
E|-------------------------------------------------------------|

2:46
e|-------------------------------------------------------------|
B|-------------------------------------------------------------|
G|-------------------------------------------------------------|
D|-------------------------------------------------------------|
A|-------------------------------------------------------------|
E|-------------------------------------------------------------|

2:54
e|-------------------------------------------------------------|
B|-------------------------------------------------------------|
G|----------starts repeating-----------------------------------|
D|-------------------------------------------------------------|
A|-------------------------------------------------------------|
E|-------------------------------------------------------------|

== Bass ==

1:24
e|-------------------------------------------------------------|
B|-------------------------------------------------------------|
G|-------------------------14-16-17-16-14-13-------------------|
D|-------------------------------------------------------------|
A|-19--18--17--16--15--14--------------------------------------|
E|-------------------------------------------------------------|

            
Submit corrections


        Purple Tyrant  lessons Hard to play? Try these video lessons and learn fast Purple Tyrant  lessons
        
↑ Back to top | Tablatures and chords for acoustic guitar and electric guitar, ukulele, drums are parodies/interpretations of the original songs. You may use it for private study, scholarship, research or language learning purposes only