» » »

Homestuck - Doctor Fingerstyle Tabs

Artists:  A B C D E F G H I J K L M N O P Q R S T U V W X Y Z # 

Doctor Fingerstyle Tabs

(ver. 1) Click to play this song!
Homestuck
 Rating:
4.1/5 (31 vote)

 Doctor Fingerstyle  lessons Tabs too difficult? Try these video lessons and learn fast
 
                     Q.     Q    E  Q       E  Q    E  Q    Q       Q.     Q    E  Q       E  Q    E  Q    Q     
E||----------------------|-----------------------|----------------------|------------------0----|
B||--1------0----1--3----|--L--0----1--3----0----|--1------0----1--3----|--L--0----1--3---------|
G||----------------------|-----------------------|----------------------|-----------------------|
D||----------------------|-----------------------|----------------------|-----------------------|
A||--0-------------------|--0--------------------|--0-------------------|--0--------------------|
E||----------------------|------------------3----|----------------------|------------------3----|


                                  AH        NH                                        NH        NH            
     Q    E  Q    E  Q       E    Q.        Q    E  S S    Q    E  Q    E  Q     E    Q    E    Q    E  E     
E||--3-------5-------0----|--L-------------------3------|--3-------5-------7--|--L-------------------7------||
B||-----------------------|------[1/13]----[12]---------|---------------------|-----------------------------||
G||-------2-------2-------|-----------------------------|-------2-------2-----|------[5]-------[7]---------*||
D||-----------------------|-----------------------------|---------------------|----------------------------*||
A||-----------------------|-----------------------------|---------------------|-----------------------------||
D||--1--------------------|--1-------------------1--0-1-|--3------------------|--3---------3---------3--0---||


     E  E  E  E  E  E  E  E     E  E  E  E  E  E  E  E     E  E  E  E  E  E  E  E     E  E  E  E  E  E  E  E  
E||--3--0-----5--0-----8--0--|-----8--7--5--0-----------|--------7--3--------------|--------------------3----|
B||--------------------------|-----------------1-----1--|-----3--------3-----0-----|-----------------------3-|
G||--------2-----------------|--------------------2-----|-----------------5-----2--|--0-----------0----------|
D||-----------------7--------|--7-----------------------|--5-----------------------|-----------0-----0-------|
A||--------------------------|--------------------------|--------------------------|-----2--3----------------|
D||--1-----------------------|-----------------0-----2--|--3-----------------3-----|--L--------3-------------|


     E  E  E  E  E  E  E  E     E  E  E  E  E  E  E  E     E  E  E  E  E  E  E  E     E  E  E  E  E  E E S S  
E||--3--0-----5--0-----8--0--|-----8--7--5--0-----------|--------3-----------------|-----------0--0----------|
B||--------------------------|-----------------1-----1--|-----3-----3--3--1--0-----|-----0-----------0---0---|
G||--------2-----------------|--------------------2-----|-----------------------0--|--1----------------1---1-|
D||-----------------7--------|--7-----------------------|--5-----------------------|--------2-----2----------|
A||--------------------------|--------------------------|--------------------------|-------------------2-----|
D||--1-----------------------|-----------------0-----2--|--3-----------L--------3--|--0-----0----------------|


     E  E  Q    E  E  E  E     E  Q    E  E  E  E  S S    E  E  E  Q    E  E  E     E  E  E  E  E  E  E  E   
E||-------------0--0--0-----|--------------------------|-------------------------|--------------------3-----|
B||----------------------3--|--L--1----0-----1-----0-1-|--3-----1--0----0--1--0--|--0--0--1--0--------------|
G||--2----------------------|--------------------------|-------------------------|--------------0--------0--|
D||-------------------------|--------------------------|-------------------------|-----------------0--------|
A||-------------------------|--------------------------|-------------------------|-----------------2--------|
D||--1--1-------------1-----|-------------1-----1--2---|--3--3-------------3-----|--L--------3-----------0--|


     E  E  E  Q.     E  E     Q    E  E  E  E  E  E     E  E  E  E  E  E  E  E     E  E  E  E  E  E  E  E   
E||------------------------|-------------------3-----|-----0--------------------|-----------0--0-----------|
B||--------0--1------1--0--|--1----1--0-----------3--|--3-----3--1--0-----------|-----0-----------0-----0--|
G||--2--2------------------|-------------2--0--------|-----------------2--0-----|--1-----------------1-----|
D||------------------------|-------------------------|-----------------------2--|--------2-----2-----------|
A||------------------------|-------------------------|--------------------------|--------------------2-----|
D||--1--1------------1-----|-------------1-----1-----|--3-----------------3-----|--4-----0-----------------|


     Q.     Q    E  Q       E  Q    E  Q    Q       Q.     Q    E  Q       E  Q    E  Q    Q     
E||----------------------|-----------------------|----------------------|------------------0----|
B||--1------0----1--3----|--L--0----1--3----0----|--1------0----1--3----|--L--0----1--3---------|
G||----------------------|-----------------------|----------------------|-----------------------|
D||----------------------|-----------------------|----------------------|-----------------------|
A||--0-------------------|--0--------------------|--0-------------------|--0--------------------|
D||----------------------|------------------3----|----------------------|------------------3----|


                                  AH        NH                                          NH        NH          
     Q    E  Q    E  Q       E    Q.        Q    E  S S    Q    E  Q    E  Q       E    Q    E    Q    E  E   
E||--3-------5-------0----|--L-------------------3------|--3-------5-------7----|--L-------------------7-----|
B||-----------------------|------[1/13]----[12]---------|-----------------------|----------------------------|
G||-------2-------2-------|-----------------------------|-------2-------2-------|------[5]-------[7]---------|
D||-----------------------|-----------------------------|-----------------------|----------------------------|
A||-----------------------|-----------------------------|-----------------------|----------------------------|
D||--1--------------------|--1-------------------1--0-1-|--3--------------------|--3---------3---------3--0--|


     E  E  E  E  E  E  E  E     E  E  E  E  E  E  E  S S    E  E  E  E  E  E  E  E     E  E  E  E  E  E E  E
E||--5-----------------------|---------------------------|--------------------------|-------------------3----|
B||--------------5--5--5--3--|--L--1-----0-----1-----0-1-|--3-----1--0-----0--1--0--|--L--0--1--0------------|
G||--2--------2--------------|---------------------------|--------------------------|--------------0-------0-|
D||-----2-----------------2--|--------------2------------|-----0--------0-----------|-----------------0------|
A||--------0--------0--------|--0-----2--------3--0--3---|--L--------------0--------|--------3---------------|
D||--------------------------|---------------------------|--------------------------|--3-----------3---------|


     E  E  E  E  E  E  E  E     E  E  E  E  E  E  E  E     E  E  E  E  E  E  E  E    E  E  E  E  E  E  E S S
E||--------------------------|--------------------3-----|-----0--------------------|----------0--0-----------|
B||--------0--1--------1--0--|--1-----1--0-----------3--|--3-----3--1--0-----------|----0-----------0----0---|
G||--2--2--------------------|--------------2--0--------|-----------------2--0-----|-1-----------------1-----|
D||--------------2-----------|--------------------------|-----------0-----------2--|-------2-----2-----------|
A||--0--------------0--3-----|--L--3-----------3--------|--------------------------|-------------------------|
D||--------------------------|--------------------------|--3-----------------------|-4-----0-----------4---4-|


     Q    H.             
E||--------------------||
B||--------------------||
G||--2-----------------||
D||--------------------||
A||--------------------||
D||--L-----------------||
            
Submit corrections


        Doctor Fingerstyle  lessons Hard to play? Try these video lessons and learn fast Doctor Fingerstyle  lessons
        
↑ Back to top | Tablatures and chords for acoustic guitar and electric guitar, ukulele, drums are parodies/interpretations of the original songs. You may use it for private study, scholarship, research or language learning purposes only