Home » H » Homestuck »

Homestuck - Dissension Tabs

Artists:  A B C D E F G H I J K L M N O P Q R S T U V W X Y Z # 

Dissension Tabs

(Version #1)
Homestuck
e|-------------|--------------|-------------|---------|----------|
B|-------------|--------------|-------------|---------|----------|
G|-8---578-7-5-|-8---578-10-7-|-8---578-7-5-|-7---5-75|4---4-5-7-|
D|-------------|--------------|-------------|---------|----------|
A|-------------|--------------|-------------|---------|----------|
E|-------------|--------------|-------------|---------|----------|

e|-------------|--------------|---------------|
B|-------------|---------6-89-|-8---898-6---6-|
G|-8---578-7-5-|-8---578------|-----------8---|
D|-------------|--------------|---------------|
A|-------------|--------------|---------------|
D|-------------|--------------|---------------|


e|-------------|-------------|-------------|-5--5-7-8-7--|
B|-9--9-8-6/9--|-8--8-6-4/8--|-9--9-8-6/9--|-------------|
G|-------------|-------------|-------------|-------------|
D|-------------|-------------|-------------|-------------|
A|-------------|-------------|-------------|-------------|
D|-------------|-------------|-------------|-------------|

e|-------------|-------------|-------------|-5--5-7-8-7--|
B|-9--9-8-6/9--|-8--8-6-4/8--|-9--9-8-6/9--|-------------|
G|-------------|-------------|-------------|-------------|
D|-------------|-------------|-------------|-------------|
A|-------------|-------------|-------------|-------------|
D|-------------|-------------|-------------|-------------|
            
Submit corrections

↑ Back to top | Tablatures and chords for acoustic guitar and electric guitar, ukulele, drums are parodies/interpretations of the original songs. You may use it for private study, scholarship, research or language learning purposes only