» » »

Homestuck - Darling Kanaya Fingerstyle Tabs

Artists:  A B C D E F G H I J K L M N O P Q R S T U V W X Y Z # 

Darling Kanaya Fingerstyle Tabs

(ver. 1) Click to play this song!
Homestuck
 Rating:
4.3/5 (25 votes)

 Darling Kanaya Fingerstyle  lessons Tabs too difficult? Try these video lessons and learn fast
 
                     H        E  E       Q    Q    Q       Q    Q    Q       Q    E  E  E  E     E  E  Q    Q     
E||-----------0--1--||---0--------------|-----------------|----------0-----0--|-----0-------3----|
B||-----------------||------------------|--1--------------|-------6-----------|--6-----6---------|
G||-----------------||*------------2----|-----------------|-------------------|------------------|
D||-----------------||*-----------------|--2--------------|--0----------------|------------------|
A||-----------------||-------------0----|-------3----0----|-------2-----------|--3-----2----3----|
D||-----------------||---3----5---------|-----------------|-------------5-----|------------------|


     Q    Q    Q       Q    Q    E  E     Q    Q    Q       Q    Q    E  E     Q    Q    Q     
E||-----------------|------------------|-----------------|------------------|-----------------|
B||--3--------------|--0---------------|--0--------------|---------------0--|--1--------------|
G||------------2----|------------0--2--|-----------------|------------2-----|-----------------|
D||-----------------|--0---------------|-----------------|------------------|------------3----|
A||------------0----|-------2----------|------------0----|--3----2----3-----|------------0----|
D||--3----5---------|------------5-----|--2----5---------|------------------|--0----3---------|


     Q    Q    E  E     Q    Q    Q       Q    Q    E  E     Q    Q    Q       Q    Q    Q       Q   Q    Q  
E||------------------|-----------------|------------------|------------0----|------------0----|--------------|
B||---------------0--|--1--------------|--1----0----------|-----------------|-----------------|-----------3--|
G||--2---------2-----|-----------------|------------3--2--|--1--------------|-----------------|--0-----------|
D||------------------|-----------------|------------------|--2----0---------|--6--------------|--0-----------|
A||--3----2----3-----|-------0---------|--0----2----3-----|------------2----|-----------------|------3----2--|
D||------------------|--0---------3----|------------------|-----------------|--6----3----2----|--------------|


     Q    Q    Q         Q    Q    Q       Q    E  E  Q       Q    E  E  E  E     E  E  E  E  Q     
E||------------------||--0--------------|--L---------------|----------0-----0--|-------------------|
B||------------3-----||-----------------|------------------|-------------6-----|--0-----0-----3----|
G||--0----3---------*||-----------------|------------------|-------------------|-----5-----5-------|
D||-----------------*||--2--------------|--L---------------|--0----------------|-------------------|
A||--0---------0-----||------------0----|-------3-----0----|-------2-----------|--3-----2-----3----|
D||-------3----------||--3----5---------|--0---------------|-------------5-----|-------------------|


     Q    Q    Q       Q    E  E  E  E     Q    Q    Q       Q    Q    E  E     Q    Q    Q     
E||--3----3---------|-------------------|-----------------|------------------|-----------------|
B||-----------------|--3----------0-----|-----------------|------------------|-----------------|
G||-----------------|----------5--------|--0--------------|------------------|--0---------0----|
D||-----------------|--0-------------7--|-----------------|------------2--3--|-------3---------|
A||------------0----|-------2-----------|------------0----|--3----2----3-----|------------0----|
D||--3----5---------|-------------5-----|--2----5---------|------------------|--0----3---------|


     Q    E  E  E  E     Q    Q    Q       Q    Q    E  E     Q    Q    Q       Q    Q    Q     
E||-------------1--3--|-----------------|------------------|-----------------|-----------------|
B||-------------------|--3--------------|--3----1----0-----|-------0---------|--0---------3----|
G||--2-------0--------|-----------------|---------------2--|--1---------1----|-------1---------|
D||-------------------|-----------------|------------------|--2----0---------|-----------------|
A||--3----2-----3-----|-------0---------|--0----2----3-----|------------2----|-----------------|
D||-------------------|--0---------3----|------------------|-----------------|--6----3----2----|


     Q    Q    Q       Q    Q    Q       Q    Q    Q       Q    Q    Q       Q    E  E  E  E   
E||-----------------|------------3----|--0--------------|-----------------|----------0-----0--|
B||--1----0----1----|--3----0---------|-----------------|-----------------|-------------6-----|
G||-----------------|-----------------|-----------------|-----------------|-------------------|
D||--0--------------|-----------------|-----------------|--2--------------|--0----------------|
A||-------3----2----|--0---------0----|------------0----|-------3----0----|-------2-----------|
D||-----------------|-------3---------|--3----5---------|-----------------|-------------5-----|


     E  E  E  E  Q       Q    Q    Q       Q    E  E  Q       Q    Q    Q       Q    Q    E  E   
E||-------------------|--3----3---------|--5-------7--5----|--3--------------|------------------|
B||--0-----0-----3----|-----------------|------------------|-----------------|------------------|
G||-----5-----5-------|-----------------|------------------|-----------------|------------------|
D||-------------------|-----------------|--0---------------|-----------------|------------2--3--|
A||--3-----2-----3----|------------0----|-------2----------|------------0----|--3----2----3-----|
D||-------------------|--3----5---------|-------------5----|--2----5---------|------------------|


     Q    Q    Q       Q    E  E  E  E     Q    Q    Q       Q    E  E  E  E     Q    Q    Q     
E||-----------------|-------------------|-----------------|-------------------|-----------------|
B||-----------------|----------------0--|--1----0----1----|--3-------1--0-----|-------0---------|
G||--0---------0----|--2-------0--2-----|-----------------|----------------2--|--1---------1----|
D||-------3---------|-------------------|-----------------|-------------------|--2----0---------|
A||------------0----|--3----2-----3-----|-------0---------|--0----2-----3-----|------------2----|
D||--0----3---------|-------------------|--0---------3----|-------------------|-----------------|


     Q    Q    Q       Q    Q    Q       Q    E  E  E  E     Q.     E  E  E     E  Q    Q       Q.   E  E  E  
E||-----------------|-----------------|-------------------|--0------1--0-----|---------------|-------1--0----|
B||--0---------3----|--1----0----1----|--3-------0--1--3--|---------------3--|---------------|-------------3-|
G||-------1---------|-----------------|-------------------|------------------|--2------------|---------------|
D||-----------------|--0--------------|-------------------|------------------|-----3----L----|--L------------|
A||-----------------|-------3----2----|--0----------0-----|--L---------------|---------------|---------------|
D||--6----3----2----|-----------------|-------3-----------|------------------|---------------|---------------|


     E  Q    Q       Q.     E  E  E     E  Q    Q       Q.     E  E  E     Q    Q    Q       Q.     E  E  E  
E||---------------|---------1--------|---------------|------------------|-----------------|---------1--0-----|
B||---------------|------------3--1--|---------------|---------3--1--0--|-----------------|---------------3--|
G||--2------------|------------------|--2------------|------------------|--2----0---------|------------------|
D||-----3----L----|--L---------------|-----2----L----|--L---------------|------------2----|--L---------------|
A||---------------|------------------|---------------|------------------|-----------------|------------------|
D||---------------|------------------|---------------|------------------|-----------------|------------------|


     E  Q    Q       Q.     E  E  E     E  Q    Q       Q.     E  E  E     E  E  Q    Q       Q.    E  E  E   
E||---------------|------------------|---------------|------------------|------------------|-----------------|
B||---------------|---------3--1--0--|---------------|---------1--0-----|------------------|--------1--0-----|
G||--2------------|------------------|--2------------|---------------2--|------------------|--------------2--|
D||-----3----L----|--L---------------|-----2----L----|--L---------------|--3--2--0----L----|--L--------------|
A||---------------|------------------|---------------|------------------|------------------|-----------------|
D||---------------|------------------|---------------|------------------|------------------|-----------------|


     E  E  E  E  E  E      H         Q       H.              Q     E   E  E   E      E   E   Q     Q     
E||--------------------|--12--------------|--8------------|-------13--12-----12--|--13--12--13----15----|
B||--------------------|------------10----|---------------|----------------------|----------------------|
G||--------------------|------------------|---------------|----------------------|----------------------|
D||--3--2--0-----------|------------------|---------------|----------------------|----------------------|
A||-----------3--2--0--|------------------|---------------|----------------------|----------------------|
D||--------------------|------------------|---------------|----------------------|----------------------|


      Q     Q     Q        Q.     E  E   E     H.              Q.     E   E  E      H         Q     
E||--------------------|--------------------|--7------------|----------------8--|---9--------------|
B||--------15----------|--12---------8--10--|---------------|------------11-----|------------------|
G||--------------14----|--------------------|--9------------|--L----------------|------------11----|
D||--12----------------|---L----------------|---------------|-------------------|--11--------------|
A||--------------------|--------------------|--7------------|--L----------------|------------------|
D||--12----------------|---L----------------|---------------|-------------------|--11--------------|


      Q.     E  E  E     H.              Q    E  E  E  E     H         Q       Q.     E   Q     
E-------------6--8--|--9------------|--9----8-----7--6--|-----------12----|------------12----|
B--11---------------|---------------|-------------------|--9--------------|--9---------------|
G-------------------|---------------|-------------------|-----------------|------------------|
D---L---------------|---------------|-------------------|-----------------|------------------|
A-------------------|--7------------|--L----------------|-----------------|------------------|
D---L---------------|---------------|-------------------|--9--------------|--L---------------|


     H         Q       Q    E  E   Q        H.               H.              Q    Q    Q       Q    Q    Q    
E-----------10----|-------6-----10----|--11------------|---L------------|-----------------|-----------------|
B--7--------------|--8----------------|----------------|----------------|-----------------|--4--------------|
G-----------------|-------------------|----------------|----------------|-----------------|--1--------------|
D-----------------|-------------------|----------------|----------------|-------4----3----|-------4----3----|
A--6--------------|--L----------------|----------------|----------------|--4--------------|-----------------|
D-----------------|-------------------|----------------|----------------|-----------------|-----------------|


     Q    E  E  E  E     Q    Q    Q       Q    E  E  Q       Q    Q    Q       Q    E  E  E  E   
E-------------------|-----------------|------------------|-----------------|-------------------|
B-------4--2--1--2--|--6--------------|--L---------------|--4--------------|--L----------------|
G-------------------|-----------------|------------------|--3----1----0----|--1----0-----------|
D--4----3-----------|-----------------|--6----4-----3----|-----------------|-------------1--3--|
A-------------4-----|-------3----6----|------------------|-----------------|-------------------|
D-------------------|--6--------------|------------------|-----------------|-------------------|


     H.              Q.     Q.               
E---------------|----------------|-------||
B--3------------|--L-------------|-------||
G---------------|----------------|-------||
D--0------------|--L-------------|-------||
A---------------|----------------|-------||
D---------------|----------------|-------||
            
Submit corrections


        Darling Kanaya Fingerstyle  lessons Hard to play? Try these video lessons and learn fast Darling Kanaya Fingerstyle  lessons
        
↑ Back to top | Tablatures and chords for acoustic guitar and electric guitar, ukulele, drums are parodies/interpretations of the original songs. You may use it for private study, scholarship, research or language learning purposes only