» » »

Homestuck - Carnival Aka Harlequin Fingerstyle Tabs

Artists:  A B C D E F G H I J K L M N O P Q R S T U V W X Y Z # 

Carnival Aka Harlequin Fingerstyle Tabs

(ver. 1) Click to play this song!
Homestuck
 Rating:
4.4/5 (11 votes)

 Carnival Aka Harlequin Fingerstyle  lessons Tabs too difficult? Try these video lessons and learn fast
 
                      E  E  E  E       Q    E  E  E  E     Q    E  E  E  E     Q    E  E  E  E     Q    E  E  E  E   
E ||-----------0--||---2----------------|--0----------------|--2----------------|--3----------------|
B ||--0--2--3-----||--------------------|-------------------|-------------------|-------------------|
F#||--------------||*-------0-----0-----|-------------------|-------0-----0-----|-------------------|
D ||--------------||*-------0-----0-----|-------2-----2-----|-------0-----0-----|-------5-----5-----|
A ||--------------||---2-------2--------|--1----2-----2-----|--2-------2--------|-------5-----5-----|
E ||--------------||--------------------|-------------------|-------------------|--3----------------|


    Q    E  E  E  E     Q    E  E  E  E     Q    E  E  E  E     Q    E  E  E  E     Q    E  E  E  E   
E|--2----------------|--0----------------|-------2--0--------|-------------0--1--|--2----------------|
B|-------------------|-------------------|-------------3-----|-------2--3--------|-------------------|
F|-------0-----0-----|-------------------|-------0-----0-----|-------0-----0-----|-------0-----0-----|
D|-------0-----0-----|-------2-----2-----|-------0-----0-----|-------------------|-------0-----0-----|
A|--2-------2--------|--1----2-----2-----|--2----------------|--1----2-----2-----|--2-------2--------|
E|-------------------|-------------------|-------------------|-------------------|-------------------|


    Q    E  E  E  E     Q    E  E  E  E     Q    E  E  E  E     Q    E  E  E  E     Q    E  E  E  E   
E|--0----------------|--2----------------|--3----------------|--7----------------|--6----------------|
B|-------------------|-------------------|-------------------|-------------------|-------------------|
F|-------------------|-------0-----0-----|-------------------|-------0-----0-----|-------------------|
D|-------2-----2-----|-------0-----0-----|-------5-----5-----|-------0-----0-----|-------------------|
A|--1----2-----2-----|--2-------2--------|-------5-----5-----|-------------------|-------7-----7-----|
E|-------------------|-------------------|--3----------------|--7-------7--------|--6----7-----7-----|

                                                                     NH                                      
    Q     E  E  E  E     Q    E  E  E   E      Q    E  E  E  E       Q    E  E  E  E      E  E  E  E  E  E   
E|-------10--9--7-----|-------6--7--9--10--|--12----------------|---------------9-----|--10--9--7-----------|
B|--------------------|--------------------|--------------------|---------------------|---------------------|
F|--------0-----0-----|-------0-----0------|--------------------|---------0-----0-----|---------0-----0-----|
D|--------0-----0-----|--------------------|--------------------|---[5]---------------|---------0-----0-----|
A|--------------------|-------4------------|--------7-----7-----|---------------------|---------------------|
E|--7-----------------|--6----------9------|---0----7--0--7-----|----2----9-----9-----|---7-----------------|


    Q    E  E  E  E     Q    E  E  E  E     Q    E  E  E  E     Q    E  E  E  E     Q    E  E  E   E   
E|--L----------2-----|--3----------------|--2----------1-----|--2----------------|--L----------9--10--|
B|-------------------|-------------------|-------------------|-------------------|--------------------|
F|-------0-----0-----|-------------------|-------0-----0-----|-------0-----0-----|-------0-----0------|
D|-------------------|-------2-----2-----|-------------------|-------0-----0-----|--------------------|
A|--1----2-----2-----|-------2-----2-----|-------2-----2-----|--2----------------|--------------------|
E|-------------------|--0----------------|--2----------------|-------------------|--6----9-----9------|


       NH                    NH                                                              
       Q    E  E  E  E       Q    E  E  E  E      E   E   E  E  E  E      Q    E  E   E  E   
E|---[12]---------------|---------------9-----|--10--12--14-----------|---L----------10-----|
B|----------------------|---------------------|-----------------------|---------------------|
F|----------1-----1-----|---------0-----0-----|-----------0-----0-----|--------0------0-----|
D|----------0-----0-----|---[5]---------------|-----------0-----0-----|---------------------|
A|----------------------|---------------------|-----------------------|---------------------|
E|-----3-------3--------|----2----9-----9-----|---7-------------------|---2----7------7-----|


                 NH         NH                     NH                                                      
    Q    E  E    E  E       Q    E  E   E  E       Q    E  E  E  E     Q    E  E  E  E       H.            
E|--7------------------|---------------13-----|---------------------|----------------0---||---------------||
B|--------------[7]----|---[7]----------------|---[7]---------------|-------0--2--3------||---------------||
F|---------------------|----------------------|---------0-----0-----|--0----------------*||--0------------||
D|-------5-------5-----|---------5------------|---------------------|-------------------*||---------------||
A|-------5-------5-----|---------5-----10-----|---------------------|--------------------||---------------||
E|--3------------------|----3----------10-----|----6----7-----7-----|--7-----------------||--7------------||            
Submit corrections


        Carnival Aka Harlequin Fingerstyle  lessons Hard to play? Try these video lessons and learn fast Carnival Aka Harlequin Fingerstyle  lessons
        
↑ Back to top | Tablatures and chords for acoustic guitar and electric guitar, ukulele, drums are parodies/interpretations of the original songs. You may use it for private study, scholarship, research or language learning purposes only