» » »

Homestuck - Atomyk Ebonpyre Tabs

Artists:  A B C D E F G H I J K L M N O P Q R S T U V W X Y Z # 

Atomyk Ebonpyre Tabs

(ver. 1) Click to play this song!
Homestuck
 Rating:
4.2/5 (30 votes)

 Atomyk Ebonpyre lessons Tabs too difficult? Try these video lessons and learn fast
 
                E|----3--8---11--15-15-18--13--|-11----8---10--11-11-|-13-11-13--13-11-13-11-13--13-14-|
B|-1---------------------------|---------------------|---------------------------------|
G|-----------------------------|---------------------|---------------------------------|
D|-----------------------------|---------------------|---------------------------------|
A|-----------------------------|---------------------|---------------------------------|
E|-----------------------------|---------------------|---------------------------------|


E|-15--10--7---3--3------------|----3--8---11--15-15-18--13--|-11--11--11--8--8--10--10-11-|
B|-------------------3--0------|-1---------------------------|-----------------------------|
G|-------------------------0---|-----------------------------|-----------------------------|
D|-----------------------------|-----------------------------|-----------------------------|
A|-----------------------------|-----------------------------|-----------------------------|
E|-----------------------------|-----------------------------|-----------------------------|


E|-10-8--8---7---13-6----7---|-8-----11--13--10--|----3--8---11--15-15-18--13--|-11----8---10--11-11-|
B|---------------------------|-------------------|-1---------------------------|---------------------|
G|---------------------------|-------------------|-----------------------------|---------------------|
D|---------------------------|-------------------|-----------------------------|---------------------|
A|---------------------------|-------------------|-----------------------------|---------------------|
E|---------------------------|-------------------|-----------------------------|---------------------|


E|-13-11-13--13-11-13-11-13--13-14-|-15--10--7---3--3------------|----3--8---11--15-15-18--13--|
B|---------------------------------|-------------------3--0------|-1---------------------------|
G|---------------------------------|-------------------------0---|-----------------------------|
D|---------------------------------|-----------------------------|-----------------------------|
A|---------------------------------|-----------------------------|-----------------------------|
E|---------------------------------|-----------------------------|-----------------------------|


E|-11--11--11--8--8--10--10-11-|-10-8--8---7---13-6----7---|-8-----11--13--10--|-8--8---8---8--18--17-17-16--|
B|-----------------------------|---------------------------|-------------------|-----------------------------|
G|-----------------------------|---------------------------|-------------------|-----------------------------|
D|-----------------------------|---------------------------|-------------------|-----------------------------|
A|-----------------------------|---------------------------|-------------------|-----------------------------|
E|-----------------------------|---------------------------|-------------------|-----------------------------|


E|-8--8--3--6---8--6----3----|-8--8---8---8--18--17--16--|-11-10-11---10-11--10--6---|
B|---------------------------|---------------------------|---------------------------|
G|---------------------------|---------------------------|---------------------------|
D|---------------------------|---------------------------|---------------------------|
A|---------------------------|---------------------------|---------------------------|
E|---------------------------|---------------------------|---------------------------|


E|-8--8---8---8--18--17-17-16--|-8--8--3--6---8--6----3----|-8--8---8---8--18--17--16--|
B|-----------------------------|---------------------------|---------------------------|
G|-----------------------------|---------------------------|---------------------------|
D|-----------------------------|---------------------------|---------------------------|
A|-----------------------------|---------------------------|---------------------------|
E|-----------------------------|---------------------------|---------------------------|


E|-11-10-11---10-11--10--6---|-8--8---8---8--18--17-17-16--|-8--8--3--6---8--6----3----|
B|---------------------------|-----------------------------|---------------------------|
G|---------------------------|-----------------------------|---------------------------|
D|---------------------------|-----------------------------|---------------------------|
A|---------------------------|-----------------------------|---------------------------|
E|---------------------------|-----------------------------|---------------------------|


E|-8--8---8---8--18--17--16--|-11-10-11---10-11--6---10--|-8---11--15--18--13--8---|
B|---------------------------|---------------------------|-------------------------|
G|---------------------------|---------------------------|-------------------------|
D|---------------------------|---------------------------|-------------------------|
A|---------------------------|---------------------------|-------------------------|
E|---------------------------|---------------------------|-------------------------|


E|-11--15--18--13--8---11--|-15--18--13--8---11--15--|-18--13--13--13----|-8------|
B|-------------------------|-------------------------|-------------------|--------|
G|-------------------------|-------------------------|-------------------|--------|
D|-------------------------|-------------------------|-------------------|--------|
A|-------------------------|-------------------------|-------------------|--------|
E|-------------------------|-------------------------|-------------------|--------|


E|-8------|
B|--------|
G|--------|
D|--------|
A|--------|
E|--------|            
Submit corrections


        Atomyk Ebonpyre lessons Hard to play? Try these video lessons and learn fast Atomyk Ebonpyre lessons
        
↑ Back to top | Tablatures and chords for acoustic guitar and electric guitar, ukulele, drums are parodies/interpretations of the original songs. You may use it for private study, scholarship, research or language learning purposes only