» » »

Hollow Coves - Ran Away Tabs

Artists:  A B C D E F G H I J K L M N O P Q R S T U V W X Y Z # 

Ran Away Tabs

(ver. 1) Click to play this song!
Hollow Coves
 Rating:
4.3/5 (27 votes)

 Ran Away lessons Tabs too difficult? Try these video lessons and learn fast
 
                [Verse]

Verse 1st pt (x3)  
D|---0---0---0----|
G|---0---0---0----|
G|---0---0---0----|
D|---0---0---4----|
G|---5---4---2----|
C|---4---2---2----|
                               
There was a time when I saw you
As someone that I could hold on to
I wanted to be there for you

Verse 2nd Pt.(x1)
D|----0---0---0----|
G|----0---0---0----|
G|----0---0---0----|
D|----2---0---4----|
G|----0---4---2----|
C|----0---2---2----|

Now we've slowly grown apart

[Verse]

Verse 1st pt (x3)  
D|---0---0---0----|
G|---0---0---0----|
G|---0---0---0----|
D|---0---0---4----|
G|---5---4---2----|
C|---4---2---2----|
                                    
You had the whole world handed to you                                           
But you started to change and threw it away                                        
For a lie that was caught in the shadows

Verse 2nd Pt.(x2)
D|----0---0---0----|
G|----0---0---0----|
G|----0---0---0----|
D|----2---0---4----|
G|----0---4---2----|
C|----0---2---2----|
                          
Pulling you away from home                             
Leaving all you've ever known

[Chorus] (x4)

D|----0----0---0----|
G|----0----0---0----|
G|----14---0---0----|
D|----0----0---0----|
G|----14---4---2----|
C|----0----4---2----|
           
You ran away                     
And you lost your way
You ran away         
And it's not the same

[Verse]

Verse 1st pt (x3)  
D|---0---0---0----|
G|---0---0---0----|
G|---0---0---0----|
D|---0---0---4----|
G|---5---4---2----|
C|---4---2---2----|
                                                 
After all of these things that we've been through                                     
Now I feel like I don't even know you
You're the shell of a man that I once knew

Verse 2nd Pt.(x2)
D|----0---0---0----|
G|----0---0---0----|
G|----0---0---0----|
D|----2---0---4----|
G|----0---4---2----|
C|----0---2---2----|

Trying to find his way back home
Hoping that ache the will go

[Chorus] (x4)

D|----0----0---0----|
G|----0----0---0----|
G|----14---0---0----|
D|----0----0---0----|
G|----14---4---2----|
C|----0----4---2----|
          
You ran away                     
And you lost your way            
You ran away                     
And it's not the same

[C-Part] (x4)

D|----0----0---0---0---0---0---|
G|----0----0---0---0---0---0---|
G|----14---0---0---0---0---0---|
D|----0----0---0---14--0---0---|
G|----14---4---2---0---4---2---|
C|----0----4---2---14--4---2---|
              
My broken home                     
And these weary bones                           
You've come and you've gone                 
Now I'm all alone
              
My broken home                     
And these weary bones                           
You've come and you've gone                 
Now I'm all alone

[Chorus] (x4)

D|----0----0---0----|
G|----0----0---0----|
G|----14---0---0----|
D|----0----0---0----|
G|----14---4---2----|
C|----0----4---2----|

You ran away                     
And you lost your way            
You ran away                     
And it's not the same           

            
Submit corrections


        Ran Away lessons Hard to play? Try these video lessons and learn fast Ran Away lessons
        
↑ Back to top | Tablatures and chords for acoustic guitar and electric guitar, ukulele, drums are parodies/interpretations of the original songs. You may use it for private study, scholarship, research or language learning purposes only