» » »

Holiday - Lets Go Outside Tabs

Artists:  A B C D E F G H I J K L M N O P Q R S T U V W X Y Z # 

Lets Go Outside Tabs

(ver. 1) Click to play this song!
Holiday
 Rating:
4.3/5 (19 votes)

 Lets Go Outside  lessons Tabs too difficult? Try these video lessons and learn fast
 
                [Main Riff]
e|--------------------------------------|
B|--------------------------------------|
G|-4-4-4444-44-4444---------------------|
D|-4-4-4444-44-4444-2-2-222-4-44-4444---|
A|-2-2-2222-22-2222-2-2-222-4-44-4444---|
E|------------------0-0-000-2-22-2222---|

[Chorus](x2)
e|--------------------------------------------------------------|
B|--------------------------------------------------------------|
G|---------4-44-4444---------4-44-4444--------------------------|
D|-2-2-222-4-44-4444-2-2-222-4-44-4444-2-2-222-4-4-4444-44-4444-|
A|-2-2-222-2-22-2222-2-2-222-2-22-2222-2-2-222-4-4-4444-44-4444-|
E|-0-0-000-----------0-0-000-----------0-0-000-2-2-2222-22-2222-|

[Bridge] (x2)
(Note - The '11111111" part is made up of 11's)
e|-------------------------------------------------------------------------------------------------|
B|-------------------------------------------------------------------------------------------------|
G|------------------9-9-9999-99-9999-4-4-4444-44-4444--11-11-11111111-11-11-11111111---------------|
D|-6-6-6666-66-6666-9-9-9999-99-9999-4-4-4444-44-4444--11-11-11111111-11-11-11111111---------------|
A|-6-6-6666-66-6666-7-7-7777-77-7777-9-9-2222-22-2222--9--9--9-9-9-9--9--9--9-9-9-9----------------|
E|-4-4-4444-44-4444--------------------------------------------------------------------------------|

[Prechorus] (x4)
(Rhythm) 
e|----------------|
B|----------------|
G|-4--------------|
D|-4---2--4-------|
A|-2---2--4-------|
E|-----0--2-------|

[Prechorus]
(Lead)
e|--------------------------------|
B|-444-2-0-------555-4-22-2h4-2-0-|
G|--------------------------------| (x3)
D|--------------------------------|
A|--------------------------------|
E|--------------------------------|

e|-------------------------------------|
B|-4p2p0-0-2-4p2p0-0-2-4p2p0-4-5-77777-|
G|-------------------------------------|
D|-------------------------------------|
A|-------------------------------------|
E|-------------------------------------|

[End]
e|--------------------|
B|--------------------|
G|-4-4------4444------|
D|-4-4-2222-4444------|
A|-2-2-2222-2222------|
E|-----0000-----------|
            
Submit corrections


        Lets Go Outside  lessons Hard to play? Try these video lessons and learn fast Lets Go Outside  lessons
        
↑ Back to top | Tablatures and chords for acoustic guitar and electric guitar, ukulele, drums are parodies/interpretations of the original songs. You may use it for private study, scholarship, research or language learning purposes only