Home » H » Hoffmaestro And Chraa »

Hoffmaestro And Chraa - So Do You Tabs

Artists:  A B C D E F G H I J K L M N O P Q R S T U V W X Y Z # 

So Do You Tabs

(ver. 3) Click to play this song!
Hoffmaestro And Chraa
-------------------------------------------------------------------------------
                             So do you - Hoffmaestro & Chraa
-------------------------------------------------------------------------------

#########################################################################
Changed By Erik P all credit go to the original author

Reason, when i was learning this song i thought it was hard to take the A and D 
chords in barré form so this is how i play it. Exactly the same notes might be 
easier for some people.
##########################################################################

Tuning: Standard

I think this is right...

 It goes like this the whole song, except last chorus
   A              Bm         Bm/F#  G        D
e|--------------------------------|-------------------2-----|
B|-----------2------------3-----3-|-------------------3-----|
G|-----------2------------4-----4-|-------4-------2-------2-|
D|-------2------------4-----------|-------5---0-------------|
A|---0------------2---------------|----5--------------------|
E|---------------------------2----|-3-----------------------|


last chorus is played:

After each chord, hit the strings with your right hand (I do not know what it is 
Listen to the song and you will understand

   A          Bm           G         D
     And if you want me to be real deep
e|--------------------------3--------2--------|
B|-2------------3-----------3--------3--------|
G|-2------------4-----------0--------2--------|
D|-2------------4--------------------0--------|
A|-0------------2-----------------------------|
E|--------------------------3-----------------|

A         Bm                G      D
  I'll hook you up with some poetry

A          Bm             G         D
  Fields are green and the sky so blue

 A                   Bm                   G          D
They both look pretty good Baby Girl but then so do you
            
Submit corrections

↑ Back to top | Tablatures and chords for acoustic guitar and electric guitar, ukulele, drums are parodies/interpretations of the original songs. You may use it for private study, scholarship, research or language learning purposes only