Home » H » Hi-Standard »

Hi-Standard - Pink Panther Tabs

Artists:  A B C D E F G H I J K L M N O P Q R S T U V W X Y Z # 

Pink Panther Tabs

(ver. 1) Click to play this song!
Hi-Standard
Intro: (Bass) But you can try it with the guitar.
e|-----------------|     
B|-----------------|
G|--6---7---8---9--|
A|--4---5---6---7--|
E|--4---5---6---7--|

Then some bar chords: 
    Em          B           Bb            Bb9       F

The chords:
Fret: VII            VII            VI           VI         VII 
E|---1------------|---1------------|---1------------|---1-------4---|---1-----|
B|---1---2--------|---1------------|---1------------|---1-----------|---1--3--|
G|---1------4-----|---1---2--------|---1---2--------|---1---2-------|---1--3--|
D|---1-------3----|---1--------4---|---1--------4---|---1-----------|---1--3--|
A|---1------------|---1--------3---|---1--------3---|---1-------3---|---1-----|
E|---1------------|---1------------|---1------------|---1-----------|---1-----|

The whole song:
Em      B       Em      Em
__
|1.
|Bb     Bb9 Bb      B
__
|2.
|F      F       F       B

out-tro:
e|---0--------------------------------------------------------|
B|-----3--0---------------------------------------------------|
G|------------2--0-----3p-2--3p-2--3p-2--3p-2--0--------------|
D|-------------------2------------------------------2--0--2---|
A|------------------------------------------------------------|
E|------------------------------------------------------------|

The hardcore part: (not quite mastered it)
     E              x4      Bb      -Sorry thats all i got so far
E|--------------------------------------------------------
B|--------------------------------------------------------
G|--------------------------------------------------------
D|----14---------------------8----------------------------
A|----14---------------------8----------------------------
E|----12-12-12-12-12-12-12---6-6-6-6-6-6-6----------------
            
Submit corrections

↑ Back to top | Tablatures and chords for acoustic guitar and electric guitar, ukulele, drums are parodies/interpretations of the original songs. You may use it for private study, scholarship, research or language learning purposes only