Home » H » Hi-Standard »

Hi-Standard - Cant Help Falling In Love Tabs

Artists:  A B C D E F G H I J K L M N O P Q R S T U V W X Y Z # 

Cant Help Falling In Love Tabs

(ver. 1) Click to play this song!
Hi-Standard
Can't Help Falling in Love by Hi-Standard
Track 4 - Love is a Battlefield


Intro

1|-------------------------------------------------------1-----------------------------------------|
2|-------1-----------------------1-----0-----1---------1---1---------1-----------------------0-----|
3|-----0---0---------0---------2---2-----2-----2-----2-------2-----0---0---------0-----2-----------|
4|---2-------2-----0---0-----2-------2-----2-----2-3-------------2-------2-----0---0-----0-----0---|
5|-3-------------2-------2-0-----------------------------------3-------------2-------2-----2-----2-|
6|-------------3-----------------------------------------------------------3-----------------------|

1|-------1-----------------------------------1-------------------------------|
2|-----1---1---------------------1---------1---1---------1-------------------|
3|---2-------2-------0---------2---2-----2-------2-----0---0---------0-----5-|
4|-3---------------0---0-----2-------2-3-------------2-------2-----0---0---5-|
5|---------------2-------2-0-----------------------3-------------2-------2-3-|
6|-------------3-----------------------------------------------3-------------| 

Verse 1

1|--------------------------------------------------------------------------|
2|--------------------------------------------------------------------------|
3|-5--------2---------------5-------------------2---------------5---------5-|
4|-5----5---2---------3-----5----5-------3-5----2----3----------5----5----5-|
5|-3----5---0---------3-----3----5-------3-5----0----3----------3----5----3-|
6|------3-------------1----------3-------1-3---------1---------------3------|
   wise men say, only fools rush in, but i cant help falling in love with you 

Verse 2

PM_________________________________________________
1|------------------------------------------------------------------------|
2|------------------------------------------------------------------------|
3|-5-------2-----------------5----------------2---------------5---------5-|
4|-5-----5-2--------------3--5-5-------3-5----2----3----------5----5----5-|
5|-3-----5-0--------------3--3-5-------3-5----0----3----------3----5----3-|
6|-------3----------------1----3-------1-3---------1---------------3------|
   shall i stay, would it be a sin, if i cant help falling in love with you 

Verse 3

1|----------------------------------------------------------------------------------------|
2|----------------------------------------------------------------------------------------|
3|--------------4--------------------4------------------4---------------------------------|
4|-2------------4------2-------------4-----2------------4-----5-----------------------3-5-|
5|-2------------2------2-------------2-----2------------2-----5---------------2----3--3-5-|
6|-0---------------3-2-0---------------3-2-0--------------3-2-3-----------------------1-3-|
   like a river flows, surely to the sea, darling so it goes, somethings were ment to be 

Verse 4

PM_______________________________________________________
1|------------------------------------------------------------------------------|
2|------------------------------------------------------------------------------|
3|-5-------2-------------------5--------------------2---------------5---------5-|
4|-5----5--2-------------3-----5----5--------3-5----2----3----------5----5----5-|
5|-3----5--0-------------3-----3----5--------3-5----0----3----------3----5----3-|
6|------3----------------1----------3--------1-3---------1---------------3------|
   take my hand, take my whole life too, for i cant help falling in love with you 

Solo

1|-----------------------------------------------------------------------------------|
2|-----------------------------------------------------------------------------------|
3|-----------------------------------------------------------------------------------|
4|---5---------------5-3-2-0---------------------------------------------------------|
5|-7---3-8-7-5-8-7-8---------2-0---0---0-2-3-5-7-5-3-5-7-8-10-7-8-7-8-10-8-7-8-5-7-3-|
6|-------------------------------3---3-----------------------------------------------| 

Verse 5

1|----------------------------------------------------------------------------------------|
2|----------------------------------------------------------------------------------------|
3|--------------4--------------------4------------------4---------------------------------|
4|-2------------4------2-------------4-----2------------4-----5-----------------------3-5-|
5|-2------------2------2-------------2-----2------------2-----5---------------2----3--3-5-|
6|-0---------------3-2-0---------------3-2-0--------------3-2-3-----------------------1-3-|
   like a river flows, surely to the sea, darling so it goes, somethings were ment to be 

Verse 6

                                                                                   PM_______
1|-----------------------------------------------------------------------------------------------------------------------|
2|-----------------------------------------------------------------------------------------------------------------------|
3|-5-------2-------------------5--------------------2---------------5---------5--------------2---------------5---------5-|
4|-5----5--2-------------3-----5----5--------3-5----2----3----------5----5----5-------3-5----2----3----------5----5----5-|
5|-3----5--0-------------3-----3----5--------3-5----0----3----------3----5----3-------3-5----0----3----------3----5----3-|
6|------3----------------1----------3--------1-3---------1---------------3------------1-3---------1---------------3------|
   take my hand, take my whole life too, for i cant help falling in love with you, no i cant help falling in love with you 

Outro

1|-0-----|
2|---1---|
3|-----5-|
4|-----5-|
5|-----3-|
6|-------|
            
Submit corrections

↑ Back to top | Tablatures and chords for acoustic guitar and electric guitar, ukulele, drums are parodies/interpretations of the original songs. You may use it for private study, scholarship, research or language learning purposes only