» » »

Hippo Campus - Tabs

Artists:  A B C D E F G H I J K L M N O P Q R S T U V W X Y Z # 

Tabs

(ver. 1) Click to play this song!
Hippo Campus
 Rating:
4.3/5 (13 votes)


  lessons Tabs too difficult? Try these video lessons and learn fast
 
                
[Lead Intro:Stitches]
e|-14-12-9----------9------9-------------------------------------------------|
B|---------12-10--10--12-10-12-10----10--------------------------------------|
G|---------------9---------------9-11----------------------------------------|
D|---------------------------------------------------------------------------|
A|---------------------------------------------------------------------------|
E|---------------------------------------------------------------------------|

{Intro: Turntan} 
e|---5--------4-------2-----x------------------------------------------------|
B|---5--------5-------2-----7------------------------------------------------|
G|---6--------6-------2-----7------------------------------------------------|
D|---7--------6-------4-----7------------------------------------------------|
A|---7--------4-------4-----5------------------------------------------------|
E|---5--------4-------2-----x------------------------------------------------|
     A       C#m     F#m    D   

[Verse] 
Stitches plays chords here, fingerstyle it to make it sizzle a bit more u know what im sayin
e|---5--------4-------2-----x------------------------------------------------|
B|---5--------5-------2-----7------------------------------------------------|
G|---6--------6-------2-----7------------------------------------------------|
D|---7--------6-------4-----7------------------------------------------------|
A|---7--------4-------4-----5------------------------------------------------|
E|---5--------4-------2-----x------------------------------------------------|
     A       C#m     F#m    D  

[Chorus]
{TurnTan} Strum the D for 2 counts in the chorus
e|---5--------4---------x------------------------------------------------|
B|---5--------5---------7------------------------------------------------|
G|---6--------6---------7------------------------------------------------|
D|---7--------6---------7------------------------------------------------|
A|---7--------4---------5------------------------------------------------|
E|---5--------4---------x------------------------------------------------|
     A       C#m        D  

{Stitches}
e|-14-12-9----------9------9-------------------------------------------------|
B|---------12-10--10--12-10-12-10----10--------------------------------------|
G|---------------9---------------9-11----------------------------------------|
D|---------------------------------------------------------------------------|
A|---------------------------------------------------------------------------|
E|---------------------------------------------------------------------------|

[Pre Chorus outro] 
{Fingerstyle/lightstum}
There's somethin' fiction 'bout the way that reality's going
e|---5--------4-------2--------x------------------------------------------------|
B|---5--------5-------2--------7------------------------------------------------|
G|---6--------6-------2--------7------------------------------------------------|
D|---7--------6-------4--------7------------------------------------------------|
A|---7--------4-------4--------5------------------------------------------------|
E|---5--------4-------2--------x------------------------------------------------|
     A       C#m     F#m       D  

chorus is basically the outro

{Turntan solo} play this twice and fast
     x4
e|---12-------9-------------------------------------------------------|
B|---12-------10------------------------------------------------------|
G|---13-------9-------------------------------------------------------|
D|--------------------------------------------------------------------|
A|--------------------------------------------------------------------|
E|--------------------------------------------------------------------|            
Submit corrections



         lessons Hard to play? Try these video lessons and learn fast  lessons
        
↑ Back to top | Tablatures and chords for acoustic guitar and electric guitar, ukulele, drums are parodies/interpretations of the original songs. You may use it for private study, scholarship, research or language learning purposes only