» » »

Rebel Yell Tabs - H.I.M

Artists:  A B C D E F G H I J K L M N O P Q R S T U V W X Y Z # 

Rebel Yell Tabs

(ver. 2) Click to play this song!
4/5 (4 votes)
    Rebel Yell lessons Tabs too difficult? Try these video lessons and learn fast
Rebel Yell 


e |-------------------------------------|
b |-------------------------------------|
g |-------------------------------------|
d |-----2-4-----2-4-----2-4-----2-4-----|
a |---4-------4-------4-------4---------|
E |-2-------2-------2-------2-----------|


e |-------------------------------------------------|
b |-------------------------------------------------|
g |-------------------------------------------------|
d |-9-x-x-9-x-9-x-x-9-x-7-x-x-7-x-5-x-x-5-x-x-x-x---|
a |-9-x-x-9-x-9-x-x-9-x-7-x-x-7-x-5-x-x-5-x-x-x-x---|
E |-7-x-x-7-x-7-x-x-7-x-5-x-x-5-x-3-x-x-3-x-x-x-x---|


e |-------------------------------------------------------------------------------|
b |-------------------------------------------------------------------------------|
g |-------------------------------------------------------------------------------|
d |-x-9-x---x-9-x---x-9-x---x-9-x---x-7-x---x-7-x---x-7-x---x-5-x---x-5-x-x-x-x---|
a |-x-9-x---x-9-x---x-9-x---x-9-x---x-7-x---x-7-x---x-7-x---x-5-x---x-5-x-x-x-x---|
E |-x-7-x---x-7-x---x-7-x---x-7-x---x-5-x---x-5-x---x-7-x---x-3-x---x-3-x-x-x-x---|

there is a few parts im working on like the solo and the wierd bits between chorus and verses.
Submit corrections

↑ Back to top | Tablatures and chords for acoustic guitar and electric guitar, ukulele, drums are parodies/interpretations of the original songs. You may use it for private study, scholarship, research or language learning purposes only