» » »

H.I.M - And Love Said No Tabs

Artists:  A B C D E F G H I J K L M N O P Q R S T U V W X Y Z # 

And Love Said No Tabs

(ver. 2) Click to play this song!
H.I.M
 Rating:
4/5 (4 votes)


 And Love Said No lessons Tabs too difficult? Try these video lessons and learn fast
 
                I think this is a great song, prob one of my favs by Him.
Anyway, im 97% sure about this tab, the intro kind of sounds like it has an echoy
thing which kind of threw me a bit coz its played more or less throughout the whole
of the song. Anyway, heres the tab, so enjoy! if any probs e-mail me
occasionally use it--not often

Standard tuning

Intro:
--3-----3---------0----------2-----------------------0------------------|
----0-----0----------0----------0--------5^3---0---------3--0-----------|
--------------0----------0----------0-----------------------------------|
------------------------------------------------------------------------|
------------------------------------------------------------------------|
------------------------------------------------------------------------|
Play this either till the chorus or until the guitar comes in with this

--------------------------------|
--------------------------------|
--------------------------------|
---------2222227777777555555555-|
---------2222225555555333335555-|
-2h3-2~~-0000005555555333333333-|

Verse(which im not too sure about)
------------------------------------------------------------------|
------------------------------------------------------------------|
------------------------------------------------------------------|
--2-----4---0-----2-----4---0------2-----4--0---------------------|
------------------------------------------------------------------|
------------------------------------------------------------------|
and love's light blue
led me to you,
love's lifes, cruel,
introduced me to you
and that moment, i knew that i was out of hope

Chorus
--------------------------------|
--------------------------------|
--------------------------------|
---------2222227777777555555555-|
---------2222225555555333335555-|
-2h3-2~~-0000005555555333333333-|

kill me, i begged and love said no
leave me for dead and let me go
kill me, i cried and love said no
kill me, i cried and love said no

Fill
---------|
---------|
---------|
---------|
---------|
-2h3-2~~-|

Verse 2
------------------------------------------------------------------|
------------------------------------------------------------------|
------------------------------------------------------------------|
--2-----4---0-----2-----4---0------2-----4--0---------------------|
------------------------------------------------------------------|
------------------------------------------------------------------|
love's icy tomb, dug open for you,
lies in cemetary that bears my name
love's violent tune from me to you,
rips your heart out and leaves you bleeding,
with a smile on your face

Chorus
--------------------------------|
--------------------------------|
--------------------------------|
---------2222227777777555555555-|
---------2222225555555333335555-|
-2h3-2~~-0000005555555333333333-|

kill me, i begged and love said no
leave me for dead and let me go
kill me, i cried and love said no
kill me, i cried and love said no

Interlude?
-----------------------------------------|
b----------------------------------------|
g---------------------------------222-5--|
d---------------------------------222-5--|
a---------------------------------000-3--|
e2h3-2-00-2h3-2-00-2h3-2-00-2h3-2--------|

Verse 3
------------------------------------------------------------------|
------------------------------------------------------------------|
------------------------------------------------------------------|
--2-----4---0-----2-----4---0------2-----4--0---------------------|
------------------------------------------------------------------|
------------------------------------------------------------------|
love's light blue took me from you,
and that moment i knew that i was out of hope again

Start of chorus
---------|
---------|
---------|
---------|
---------|
-2h3-2~~-|

*DRUMS*
Kill me

Chorus
------------------------|
------------------------|
------------------------|
-2222227777777555555555-|
-2222225555555333335555-|
-0000005555555333333333-|

i begged and love said no
leave me for dead and let me go
kill me, i cried and love said no
kill me, i cried and love said no
love said no,
and love said no

Outro
--3-----3---------0----------2-----------------------0------------------|
----0-----0----------0----------0--------5^3---0---------3--0-----------|
--------------0----------0----------0-----------------------------------|
------------------------------------------------------------------------|
------------------------------------------------------------------------|
------------------------------------------------------------------------|
ooooooohhhh...

There you go-END!
The only thing im not 100% sure about are the verses, so if you have any ideas let me know!
            
Submit corrections



        And Love Said No lessons Hard to play? Try these video lessons and learn fast And Love Said No lessons
        
↑ Back to top | Tablatures and chords for acoustic guitar and electric guitar, ukulele, drums are parodies/interpretations of the original songs. You may use it for private study, scholarship, research or language learning purposes only