» » »

Hillsongs - One Way Tabs

Artists:  A B C D E F G H I J K L M N O P Q R S T U V W X Y Z # 

One Way Tabs

(ver. 3) Click to play this song!
Hillsongs
 Rating:
4/5 (4 votes)


 One Way lessons Tabs too difficult? Try these video lessons and learn fast
 
                ONE WAY
Hillsong Australia

Guitar 1: Acoustic Guitar in Standard Tuning
Guitar 2: Electric Guitar in Standard Tuning
Tabs only for 2 guitars
It's not 100 % accurate
Intro:
 Guitar 1:
          B                  G#m
|------------------------------------------------|
|------------------------------------------------|
|----------4--4--4--4--4--4--4--4--4--4--4--4----|
|----------4--4--4--4--4--4--6--6--6--6--6--6----|
|----------2--2--2--2--2--2--6--6--6--6--6--6----|
|----------------------------4--4--4--4--4--4----|
| Guitar 2:                                      |    
|------------------------------------------------|
|------------------------------------------------|
|----------------------------13-13-13-13-13-13---|
|----x--x--9--9--9--9--9--9--13-13-13-13-13-13---|
|----x--x--9--9--9--9--9--9--11-11-11-11-11-11---|
|----x--x--7--7--7--7--7--7----------------------|
 Guitar 1:
   F#    F#sus     F#       E
|------------------------------------------------|
|------------------------------------------------|
|--3--3--3--3--3--3-------1--1--1--1--1--1-------|
|--4--4--4--4--4--4-------2--2--2--2--2--2-------|
|--4--4--4--4--4--4-------2--2--2--2--2--2-------|
|--2--2--2--2--2--2-------0--0--0--0--0--0-------|
| Guitar 2:                                      |
|------------------------------------------------|
|------------------------------------------------|
|--11-11-12-11-12-11-12-11--9--9--9--9--9--9-----|
|--11-11-11-11-11-11-11-11--9--9--9--9--9--9-----|
|---9--9--9--9--9--9--9--9--7--7--7--7--7--7-----|
|------------------------------------------------|
| Guitar 3:                                      |
|------------------------------------------------|
|------------------------------------------------|
|---------------------------9~-------------------|
|---------------------------9`-------------------|
|--x--x--x--x--x--x---------7~-------------------|
|--x--x--x--x--x--x--/12\---0~-------------------|
Verse 1:
 Guitar 1:
    B
|------------------------------------------------|
|------------------------------------------------|
|---4---4---4---4---4---4---4---4----------------|
|---4---4---4---4---4---4---4---4----------------|
|---2---2---2---2---2---2---2---2----------------|
|------------------------------------------------|
  I lay my life down at Your feet
 Guitar 1:
    G#m
|------------------------------------------------|
|------------------------------------------------|
|------------------------------------------------|
|---6-----6-----6-----6----6-----6---6---6-------|
|---6-x-x-6-x-x-6-x-x-6--x-6-x-x-6---6---6-------|
|---4-x-x-4-x-x-4-x-x-4--x-4-x-x-4---4---4-------|
  Cause You're the only One I need
 Guitar 1:
   F#                              E
|------------------------------------------------|
|------------------------------------------------|
|------------------------------------------------|
|-4-----4-----4-----4---4--4--4--4-2--2--2--2--2-|
|-4-x-x-4-x-x-4-x-x-4-x-4--4--4--4-2--2--2--2--2-|
|-2-x-x-2-x-x-2-x-x-2-x-2--2--2--2-0--0--0--0--0-|
| Guitar 2:                                      |
|------------------------------------------------|
|-------------------------------------5---5-5-4--|
|-------------------------------------4---4-4-4--|
|-------------------------------------2---2-2-4--|
|-----------------------------------2---------2--|
|------------------------------/12\-0---0--------|
  I turn to You and You are always there
 Guitar 1: continue same riff
 Guitar 2: 
|------------------------------------------------|
|------------------------------------------------|
|---4---4---4---4---4---4---4---4----------------|
|---4---4---4---4---4---4---4---4----------------|
|---2---2---2---2---2---2---2---2----------------|
|------------------------------------------------|
  In troubled times it's You I seek
 Guitar 1: continue same riff
 Guitar 2:
|------------------------------------------------|
|------------------------------------------------|
|------------------------------------------------|
|---6---6---6---6---6---6---6---6----------------|
|---6---6---6---6---6---6---6---6----------------|
|---4---4---4---4---4---4---4---4----------------|
  I put You first that's all I need
 Guitar 1: continue same riff
 Guitar 2:
|------------------------------------------------|
|------------------------------------------------|
|------------------------------------------------|
|---4---4---4---4---4---4---4---4--2--2--2--2--2-|
|---4---4---4---4---4---4---4---4--2--2--2--2--2-|
|---2---2---2---2---2---2---2---2--0--0--0--0--0-|
  I humble all i am, all to You
Chorus:
   B       F#       G#m                    E  
|--------------------------------------------------------|
|--4--4--4-----------------------------------------------|
|--4--4--4-3--3--3--4---4---4---4---4---4--1--1--1--1--1-|
|--4--4--4-4--4--4--6---6---6---6---6---6--2--2--2--2--2-|
|--2--2--2-4--4--4--6---6---6---6---6---6--2--2--2--2--2-|
|----------2--2--2--4---4---4---4---4---4--0--0--0--0--0-|
 One way, Jesus, You're the only One that I could live for
   B       F#       G#m                    A
|--------------------------------------------------------|
|--4--4--4-----------------------------------------------|
|--4--4--4-3--3--3--4---4---4---4---4---4--6--6--6--6--6-|
|--4--4--4-4--4--4--6---6---6---6---6---6--7--7--7--7--7-|
|--2--2--2-4--4--4--6---6---6---6---6---6--7--7--7--7--7-|
|----------2--2--2--4---4---4---4---4---4--5--5--5--5--5-|
 One way, Jesus, You're the only One that I could live for
Interlude:
  G#m             E              G#m              E
|---------------------------------------------------------|
|--------------------------------4b5r4-----------4b5r4b5r4|
|---3b4r3b4r3b4r3b4r3b4r3b4r3b4r3------3b4r3b4r3----------|
|---------------------------------------------------------|
|---------------------------------------------------------|
|---------------------------------------------------------|
Verse 2:
 Guitar 1:
    B
|------------------------------------------------|
|------------------------------------------------|
|---4---4---4---4---4---4---4---4----------------|
|---4---4---4---4---4---4---4---4----------------|
|---2---2---2---2---2---2---2---2----------------|
|------------------------------------------------|
  You are always, always there
 Guitar 1:
    G#m
|------------------------------------------------|
|------------------------------------------------|
|------------------------------------------------|
|---6-----6-----6-----6----6-----6---6---6-------|
|---6-x-x-6-x-x-6-x-x-6--x-6-x-x-6---6---6-------|
|---4-x-x-4-x-x-4-x-x-4--x-4-x-x-4---4---4-------|
  Everyhow and everywhere
   F#                              E
|------------------------------------------------|
|------------------------------------------------|
|------------------------------------------------|
|-4-----4-----4-----4---4--4--4--4-2--2--2--2--2-|
|-4-x-x-4-x-x-4-x-x-4-x-4--4--4--4-2--2--2--2--2-|
|-2-x-x-2-x-x-2-x-x-2-x-2--2--2--2-0--0--0--0--0-|
| Guitar 2:                                      |
|------------------------------------------------|
|-------------------------------------5---5-5-4--|
|-------------------------------------4---4-4-4--|
|-------------------------------------2---2-2-4--|
|-----------------------------------2---------2--|
|------------------------------/12\-0---0--------|
  Your grace abounds so deeply within me
 Guitar 1: continue same riff
 Guitar 2: 
|------------------------------------------------|
|------------------------------------------------|
|---4---4---4---4---4---4---4---4----------------|
|---4---4---4---4---4---4---4---4----------------|
|---2---2---2---2---2---2---2---2----------------|
|------------------------------------------------|
  You will never ever change
 Guitar 1: continue same riff
 Guitar 2:
|------------------------------------------------|
|------------------------------------------------|
|------------------------------------------------|
|---6---6---6---6---6---6---6---6----------------|
|---6---6---6---6---6---6---6---6----------------|
|---4---4---4---4---4---4---4---4----------------|
  Yesterday today the same
 Guitar 1: continue same riff:
 Guitar 2:
|------------------------------------------------|
|------------------------------------------------|
|------------------------------------------------|
|---4---4---4---4---4---4---4---4--2--2--2--2--2-|
|---4---4---4---4---4---4---4---4--2--2--2--2--2-|
|---2---2---2---2---2---2---2---2--0--0--0--0--0-|
  Forever 'til forever meets no end
Chorus: repeat for 2x's
   B       F#       G#m                    E  
|--------------------------------------------------------|
|--4--4--4-----------------------------------------------|
|--4--4--4-3--3--3--4---4---4---4---4---4--1--1--1--1--1-|
|--4--4--4-4--4--4--6---6---6---6---6---6--2--2--2--2--2-|
|--2--2--2-4--4--4--6---6---6---6---6---6--2--2--2--2--2-|
|----------2--2--2--4---4---4---4---4---4--0--0--0--0--0-|
 One way, Jesus, You're the only One that I could live for
   B       F#       G#m                    A
|--------------------------------------------------------|
|--4--4--4-----------------------------------------------|
|--4--4--4-3--3--3--4---4---4---4---4---4--6--6--6--6--6-|
|--4--4--4-4--4--4--6---6---6---6---6---6--7--7--7--7--7-|
|--2--2--2-4--4--4--6---6---6---6---6---6--7--7--7--7--7-|
|----------2--2--2--4---4---4---4---4---4--5--5--5--5--5-|
 One way, Jesus, You're the only One that I could live for
Bridge:
   B                   F#
 pm....pm.....pm....pm.....pm....pm...pm
|--------------------------------------------|
|--------------------------------------------|
|--------------------------------------------|
|--9--9--9--9--9---9---4--4--4--4--4--4--4---|
|--9--9--9--9--9---9---4--4--4--4--4--4--4---|
|--7--7--7--7--7---7---2--2--2--2--2--2--2---|
  You are the way, the truth and the life

   G#m                  E                G#m
  pm...pm....pm.....pm.....pm....pm....pm.....pm....
|---------------------------------------------------|
|---------------------------------------------------|
|---------------------------------------------------|
|--6---6---6---6---6---2--2--2---2--2---6--8--9--8--|
|--6---6---6---6---6---2--2--2---2--2---6--6--6--6--|
|--4---4---4---4---4---0--0--0---0--0---4--4--4--4--|
  We live by faith and not by sight for You

    F#                E
  pm.......pm.........pm........pm.......pm
|--------------------------------------------------|
|--------------------------------------------------|
|--------4-------4---------------------------------|
|------------------4--2--2--2--2--2--2-------------|
|---4--4----4--4---4--2--2--2--2--2--2-------------|
|---------------------0--0--0--0--0--0-------------|
  We're living all for You
    B                 F#                 
|--------------------------------------------------|
|--------------------------------------------------|
|--4---4---4---4---4-------------------------------|
|--4---4---4---4---4--4---4---4---4---4------------|
|--2---2---2---2---2--4---4---4---4---4------------|
|---------------------2---2---2---2---2------------|
 You are the way, the truth and the life
  G#m                  E               G#m
|--------------------------------------------------|
|--------------------------------------------------|
|--------------------------------------------------|
|--6---6---6---6---6---2--2--2--2--2--6--6--6--6---|
|--6---6---6---6---6---2--2--2--2--2--6--6--6--6---|
|--4---4---4---4---4---0--0--0--0--0--4--4--4--4---|
  We live by faith and not by sight for You
   F#                 E   
|--------------------------------------------------|
|--------------------------------------------------|
|--3---3---3---3---3---1---1---1---1---------------|
|--4---4---4---4---4---2---2---2---2---------------|
|--4---4---4---4---4---2---2---2---2---------------|
|--2---2---2---2---2---0---0---0---0---------------|
 We're living all for You
Chorus:
 Guitar 1: observe breaking here while Guitar 2 gets in
   B (break)F#(break) G#m                    E  
|--------------------------------------------------------|
|--4--4--4-----------------------------------------------|
|--4--4--4-3--3--3--4---4---4---4---4---4--1--1--1--1--1-|
|--4--4--4-4--4--4--6---6---6---6---6---6--2--2--2--2--2-|
|--2--2--2-4--4--4--6---6---6---6---6---6--2--2--2--2--2-|
|----------2--2--2--4---4---4---4---4---4--0--0--0--0--0-|
One way, Jesus, You're the only One that I could live for
 Guitar 2:
|--------------------------------------------------------|
|-------4b5r4b5r4----------------------------------------|
|-------------------3b4r3b4r3----------------------------|
|--------------------------------------------------------|
|--------------------------------------------------------|
|--------------------------------------------------------|
 Guitar 1:
   B(break)F#(break)G#m                    A
|--------------------------------------------------------|
|--4--4--4-----------------------------------------------|
|--4--4--4-3--3--3--4---4---4---4---4---4--6--6--6--6--6-|
|--4--4--4-4--4--4--6---6---6---6---6---6--7--7--7--7--7-|
|--2--2--2-4--4--4--6---6---6---6---6---6--7--7--7--7--7-|
|----------2--2--2--4---4---4---4---4---4--5--5--5--5--5-|
 One way, Jesus, You're the only One that I could live for
 Guitar 2:
|--------------------------------------------------------|
|-------4b5r4b5r4----------------------------------------|
|-------------------3b4r3b4r3----------------------------|
|--------------------------------------------------------|
|--------------------------------------------------------|
|--------------------------------------------------------|
Outro: Chorus
Chorus: repeat 2 times then end
   B       F#       G#m                    E  
|--------------------------------------------------------|
|--4--4--4-----------------------------------------------|
|--4--4--4-3--3--3--4---4---4---4---4---4--1--1--1--1--1-|
|--4--4--4-4--4--4--6---6---6---6---6---6--2--2--2--2--2-|
|--2--2--2-4--4--4--6---6---6---6---6---6--2--2--2--2--2-|
|----------2--2--2--4---4---4---4---4---4--0--0--0--0--0-|
 One way, Jesus, You're the only One that I could live for
   B       F#       G#m                    A
|--------------------------------------------------------|
|--4--4--4-----------------------------------------------|
|--4--4--4-3--3--3--4---4---4---4---4---4--6--6--6--6--6-|
|--4--4--4-4--4--4--6---6---6---6---6---6--7--7--7--7--7-|
|--2--2--2-4--4--4--6---6---6---6---6---6--7--7--7--7--7-|
|----------2--2--2--4---4---4---4---4---4--5--5--5--5--5-|
 One way, Jesus, You're the only One that I could live for
 
End with B..

Thanks for Patrick and Ivanna as my inspiration.........
            
Submit corrections



        One Way lessons Hard to play? Try these video lessons and learn fast One Way lessons
        
↑ Back to top | Tablatures and chords for acoustic guitar and electric guitar, ukulele, drums are parodies/interpretations of the original songs. You may use it for private study, scholarship, research or language learning purposes only