» » »

Hillsongs - God Is Great Tabs

Artists:  A B C D E F G H I J K L M N O P Q R S T U V W X Y Z # 

God Is Great Tabs

(ver. 2) Click to play this song!
Hillsongs
 Rating:
4/5 (4 votes)


 God Is Great lessons Tabs too difficult? Try these video lessons and learn fast
 
                This is my First tab..
this is not 100% perfect
but sound's great(GOD IS GREAT)

rate please...

GOD IS GREAT..
hillsongs.....

standard tuning...(eadgbe)

| /  slide up
| \  slide down
| h  hammer-on
| ~  let it ring
| .  palm mute
| x  Mute note

intro... B - E - F# - E

e|---------------------------------------------------|-----|
b|---------------------------------------------------|-----|
g|--4444/99\88\6666/1111\99 \4444/99\88\6666/1111\99-|-44~-|
d|--xxxx/xx\xx\xxxx/x-x-\xx \xxxx/xx\xx\xxxx/-x-x\xx-|-44~-|
a|--2222/77\66\4444/9-9-\77 \2222/77\66\4444/-9-9\77-|-22~-|
e|---------------------------------------------------|-----|
                                                      this bar is 
                                                      continuatiion
                                                      to 1st verse...
verse 1.. 
guitar 

   B - E    F#    B - E     F#
e|--------|------|---------|------2~----|
b|--------|------|---------|------2~----|(Distorted)
g|-4~-----|------|-4~------|------3~----|
d|-4~-----|-3h4~-|-4~------|--44--4~----|
a|-2~-----|------|-2~------|--44--4~----|
e|--------|------|---------|--22--2~----|
                              ..
 all creation...  worshiping....

  G#m7- F#-E   E  F#  E  F# | B -E F#   B -E  F#
e|-----------|--------------|--------|----------2~----|
b|-----------|--------------|--------|----------2~----|
g|-----------|--------------|-4~-----|---4~-----3~----|
d|-6----4--2-|-2--4---2--4--|-4~-----|---4~--44-4~----|
a|-6----4--2-|-2--4---2--4--|-2~-----|---2~--44-4~----|
e|-4----2--0-|-0--2---0--2--|--------|-------22-2~----|
                                             ..
  glory to..              all creation..  you alone...

   G#m7 F# E ---- F# E F#                            
e|-------------------------|
b|-------------------------|
g|-------------------------|
d|--6-4-2----------4-2-4---|
a|--6-4-2----------4-2-4---|
e|--4-2-0----------2-0-2---|

  for eternity.. yeah yeah..

CHORUS.

   B - E - F# - E
e|-------------------------|-----------------------------------------|
b|-------------------------|-----------------------------------------|
g|-4444/9999/11111111\9999-|--4444/7777/11111111\9999-/1616161616b---|
d|-4444/9999/11111111\9999-|--4444/7777/11111111\9999-/1616161616b---| (2x)
a|-2222/7777/-9-9-9-9\7777-|--2222/7777/-9-9-9-9\7777-/1414141414b---|
e|-------------------------|-----------------------------------------|

   God is great....            and your name.....     

(after chorus)
    B - E - F# - E
e|----------------------------------------------|---|
b|----------------------------------------------|---|
g|-44444444/99999999/1111111111111111\99999999--|-4-|
d|-xxxxxxxx/xxxxxxxx/-x-x-x-x-x-x-x-x\xxxxxxxx--|-4-|
a|-22222222/77777777/-9-9-9-9-9-9-9-9\77777777--|-2-|
e|----------------------------------------------|---|
                                                 (continuation..)

verse 2

  (B - E    F#    B - E    F#
e|--------|-2~-|---------|------2~----|
b|--------|-2~-|---------|------2~----|(Distorted)
g|-4~-----|-3~-|-4~------|------3~----|
d|-4~-----|-4~-|-4~------|--44--4~----|
a|-2~-----|-4~-|-2~------|--44--4~----|
e|--------|-2~-|---------|--22--2~----|
                            ..
  all to you... let your fire..

  G#m7- F#-E   E -  -  -  F#|
e|-----------|--------------|
b|-----------|--------------|
g|-----------|--------------|
d|-6----4--2-|-2--2---4--4--|
a|-6----4--2-|-2--2---4--4--|
e|-4----2--0-|-0--0---2--2--|
                  
   that all may see... yeah..

CHORUS.

   B - E - F# - E
e|-------------------------|-----------------------------------------|
b|-------------------------|-----------------------------------------|
g|-4444/9999/11111111\9999-|--4444/7777/11111111\9999-/1616161616b---|
d|-4444/9999/11111111\9999-|--4444/7777/11111111\9999-/1616161616b---| (2x)
a|-2222/7777/-9-9-9-9\7777-|--2222/7777/-9-9-9-9\7777-/1414141414b---|
e|-------------------------|-----------------------------------------|

   God is great....            and your name.....     
(repeat chorus 2x)
               
solo...
  
  B - E - F# - E
e|------------------.--2~--|
b|------------------.--2~--|
g|------------------.--3~--|
d|------1-2--1------.--4~--|(2x)
a|--2-4-------4-----.--4~--|
e|-------------2~---.--2~--|
   
bridge.....

   B - E - F#     | G#m7 - E - F#             
e|----------------|---------------|
b|----------------|---------------|(2x)
g|-4~------11~----|-13---9-11-----|
d|-4~------11~----|-13---9-11-----|
a|-2~------9-~----|-11---7-9------|
e|----------------|---------------|
  holy is the....

 then....(higher)
   B - E -  F#                 G#m7 - E  - F#
e|-----------------------------------------------------------|
b|-----------------------------------------------------------|
g|-4444/9999/111111111111111/13131313\9999/1111111111111111--|
d|-xxxx/xxxx/x-x-x-x-x-x-x-x/-x-x-x-x\xxxx/x-x-x-x-x-x-x-x---|(2x)
a|-2222/7777/9-9-9-9-9-9-9-9/11111111\7777/9-9-9-9-9-9-9-9---|
e|-----------------------------------------------------------|
   holy is the......
   
repeat chorus (2x) then repeat last 2 lines of chorus

CHORUS.

   B - E - F# - E
e|-------------------------|-----------------------------------------|
b|-------------------------|-----------------------------------------|
g|-4444/9999/11111111\9999-|--4444/7777/11111111\9999-/1616161616b---|
d|-4444/9999/11111111\9999-|--4444/7777/11111111\9999-/1616161616b---| (2x)
a|-2222/7777/-9-9-9-9\7777-|--2222/7777/-9-9-9-9\7777-/1414141414b---|
e|-------------------------|-----------------------------------------|

   God is great....            and your name.....     

OUTRO

   B - E - F# - E                B.....

e|------------------------------|----|
b|------------------------------|----|
g|------------------------------|-4~-|
d|-----1-2--1-------------------|-4~-|
a|-2-4-------4---------1-----2~-|-2~-|
e|-------------2~--2-4---4-2----|----|
          (2x)                   end...

for any comments..
mail me at my friendster account..
Christ Steward Fellowship...
.Rocky Austrua. 
            
Submit corrections



        God Is Great lessons Hard to play? Try these video lessons and learn fast God Is Great lessons
        
↑ Back to top | Tablatures and chords for acoustic guitar and electric guitar, ukulele, drums are parodies/interpretations of the original songs. You may use it for private study, scholarship, research or language learning purposes only