» » »

Hillsongs - Break Free Tabs

Artists:  A B C D E F G H I J K L M N O P Q R S T U V W X Y Z # 

Break Free Tabs

(ver. 1) Click to play this song!
Hillsongs
 Rating:
4/5 (4 votes)
                (Intro)
Here is the real intro to Break Free
E-------------------------------------------------------|
A-------------------------------------------------------|
D-------------------------------------------------------|
G-----------------------0-0-4-0-4-6----0-4-0-4-6--------|
B-------------------------------------------------------|
E--2-2-2-2-2-2-2-2-2-2----------------------------------|

E-------------------------------------------------------|
A-------------------------------------------------------|
D-------------------------------------------------------|
G-----------------------4-4-6-6-4-4-b6-b6---------------|
B-----------------------5-5-5-5-5-5-b5-b5---------------|
E--2-2-2-2-2-2-2-2-2-2----------------------------------|
b= bend
Enjoy
            
Submit corrections

↑ Back to top | Tablatures and chords for acoustic guitar and electric guitar, ukulele, drums are parodies/interpretations of the original songs. You may use it for private study, scholarship, research or language learning purposes only