» » »

Hikaru Utada - Simple And Clean Tabs

Artists:  A B C D E F G H I J K L M N O P Q R S T U V W X Y Z # 

Simple And Clean Tabs

(ver. 3) Click to play this song!
Hikaru Utada
 Rating:
4.2/5 (5 votes)

 Simple And Clean lessons Tabs too difficult? Try these video lessons and learn fast
 
                -----------------------------------------------------------------------
                 Simple and Clean by Utada Hikaru
-----------------------------------------------------------------------
Tuning: Regular

 / = slide up

e|-------------------------------------------------------------------|A
B|---5-------------5------------5------------------------------------|
G|-----7-5-4-5-------7-5-4-5------7-5-4-5----------------------------|
D|-7-------------7------------7--------------------------------------|
A|-------------------------------------------------------------------|
E|-------------------------------------------------------------------|

e|-------------------------------------------------------------------|B
B|-------------------------------------------------------------------|
G|-------5-4-5/10-9-5-4-5-5/12-10-9-7-9-10-9---------9-10-7----------|
D|-5-5-5-------------------------------------7-10-10--------10-9-----|
A|-------------------------------------------------------------------|
E|-------------------------------------------------------------------|

e|-------------------------------------------------------------------|C
B|-------------------------------------------------------------------|
G|---4-5-5,----4-5-5-7-------4-5-7-5,----4-5-5-7---------------------|
D|-5---------5---------7,--5-----------5---------7,------------------|
A|-------------------------------------------------------------------|
E|-------------------------------------------------------------------|

e|-------------------------------------------------------------------|D
B|-------------------------------------------------------5-----------|
G|-----------------5--------------------4-5------------5-------------|
D|-7-5-7-5-7-5-7-9---7--6-4-6-4-6-4-6-8-----7-7,-7-5-7-----[7-5-7]X3-|
A|-------------------------------------------------------------------|
E|-------------------------------------------------------------------|

e|-------------------------------------------------------------------|E
B|-------------------------------------------------------------------|
G|---5-7-9-7---9-----9-7----------5------5-----9—--------------------|
D|-9---------7---7-6-----6-7--5-7----5-7---7-6-----------------------|
A|-------------------------------------------------------------------|
E|------------------------------------------------------Repeat A & B-|

e|-------------------------------------------------------------------|F
B|-------------------------------------------------------------------|
G|-12----12-12-14-12-10-9-10-12----------10-9-10-12-9----------------|
D|----10------------------------10----10--------------12-------------|
A|---------------------------------12--------------------------------|
E|-------------------------------------------------------------------|

e|-------------------------------------------------------------------|G
B|-------------------------------------------------------------------|
G|-------------------------------------------------------------------|
D|-10-9-10----9-10-----------------------7----7/10-----14-12-15-14---|
A|---------10------10-10-7-10-7-10-10-10---10-------10---------------|
E|------------------------------------------------------Repeat A & B-|
            
Submit corrections


        Simple And Clean lessons Hard to play? Try these video lessons and learn fast Simple And Clean lessons
        
↑ Back to top | Tablatures and chords for acoustic guitar and electric guitar, ukulele, drums are parodies/interpretations of the original songs. You may use it for private study, scholarship, research or language learning purposes only