Home » H » Hikaru Utada »

Hikaru Utada - Sanctuary Bass

Artists:  A B C D E F G H I J K L M N O P Q R S T U V W X Y Z # 

Sanctuary Bass

(ver. 1) Click to play this song!
Hikaru Utada
 Rating:
4.2/5 (5 votes)
                THIS IS NOT MINE! ALL CREDIT GOES TO Gustavoveg02.
AGAIN, ALL CREDIT GOES TO THIS GUY---^^^^^^^^^^^^
SORRY I TABBED IT W/O PERMISSION
NOT 100% CORRECT IF YOU FIND ERRORS OR ANY IMPROVEMENTS NEEDED PLEASE POST IT
THIS IS MY FIRST TAB CONSTRUCTIVE CRITICISM PLEASE
HOPE U LIKE IT

Intro (00:19)
G|-----------| 4x
D|-----------|
A|-----------|
E|-9-9-9-11~-|

Chorus
G|-----------------------------------------|-------\
D|-----------------------------------------|        \           
A|-------------------------7-7--------7-7--|         \             
E|-5--5-5----5--5-5----9-9--9-9---9-9--9---|          \               
                                                      x2
G|------------------------------------------------|   /
D|--------76--------------------------------------|  /                  
A|------------------------------7-7----------7-7--| /                  
E|-5--5-5-----5--5-5-5----9--9---9-9---9--9---9-9-|/

Verses
G|------------------| x6
D|------------------|
A|----55555---77777-|
E|-777-----555------|

Bridge
G|---------------------------------|  x4
D|---------------------------------|
A|-------11h12-11h12-----------7h9-|
E|-9-9-9-----------------9-9-9-----|

Ending
G|--------------------------------------|  x4
D|-------------------11---11----11---11-|
A|--------------------------------------|
E|5555555555555555-99--999---999--999---|

G|-----------|  x3
D|-----------|
A|-----------|
E|-9-9-9-11~-|
            
Submit corrections

↑ Back to top | Tablatures and chords for acoustic guitar and electric guitar, ukulele, drums are parodies/interpretations of the original songs. You may use it for private study, scholarship, research or language learning purposes only